Guitaretab - guitar tabs
Song name
# A B C D E F G H I J K L M N O P Q R S T U V W X Y Z

Pat Mcgee Band - Passion tab

Passion
Artist: Pat McGee Band
Album: Revel

Contributor: Daniel Schnall

Capo: 2 (all chords relative to capo)


Intro/Chorus
e|---0----0----0----0----0----|
B|---0----0----0----0----0----|
G|---9----8----6----6----6----|
D|---9----8----7----6----7----|
A|---7----9----7----4----0----|
E|----------------------------|


Verse
e|---4----0----7----0---|
B|---5----0----9----0---|
G|---6----6----9----8---|
D|---6----7----9----9---|
A|---4----7----7----9---|
E|--------5---------7---|

[ Tab from: http://www.guitaretab.com/p/pat-mcgee-band/180245.html ]
Pre-Chorus
e|---0----0----0----0---|
B|---0----0----0----0---|
G|---1----2----4----6---|(x3)
D|---2----4----6----7---|
A|---2----4----6----0---|
E|---0------------------|

e|--0---------0--2--2h4--2--0h2--|
B|--0----0h2---------------------|
G|--4----------------------------|
D|--4----------------------------|
A|--2----------------------------|
E|-------------------------------|

Jam (after Verse 2 and Pre-Chorus)
e|--------------------------|
B|--------------------------|
G|--4--5--6-----4--5--6--9--|
D|--4--5--6-----4--5--6--9--|(x4)
A|--2--3--4-----2--3--4--7--|
E|--------------------------|
Related for Passion tab