Song name
# A B C D E F G H I J K L M N O P Q R S T U V W X Y Z

Pat Mcgee Band - Fine tab

Fine
Artist: Pat McGee Band
Album: Shine

Contributor: Daniel Schnall


Intro / Chorus Part 1
e|---0----0---|
B|---0----5---|
G|---9----6---|
D|---9----7---|
A|---7----0---|
E|--------5---|


Verse / Chorus Part 2 ("It's alright")
e|---2----0--------------0--------|
B|---2----0------------0----0-----|
G|---2----2---------4-------------|
D|---4----2-------4-----------4---|
A|---4----0----2------------------|
E|---2----------------------------|


Pre Chorus
e|---0---0---0-----0---0---0-----0---|
B|---0---0---0-----0---0---0-----0---|
G|---6---7---9-----6---7---9-----8---|
D|---6---7---9-----6---7---9-----9---|
A|---4---5---7-----4---5---7-----9---|
E|-------------------------------7---|


Bridge
e|---0----0----0----0----0----0---|
B|---0----0----0----0----0----0---|
G|---6----4----6----4----2----4---|
D|---6----4----6----4----2----4---|
A|---4----2----4----2----0----2---|
E|--------------------------------|
Tap to rate this tab
# A B C D E F G H I J K L M N O P Q R S T U V W X Y Z