Guitaretab - guitar tabs
Song name
# A B C D E F G H I J K L M N O P Q R S T U V W X Y Z

Pat Travers - Snortin Whiskey tab

Gtr I (E A D G B E) - 'Untitled'

4/4
          W
          |
          /
[ Tab from: http://www.guitaretab.com/p/pat-travers/107809.html ]
Gtr I
  E E E E E  E E E E E E E E E E E E E E E E E   E  E E E E E
|--------------------------------------------------------------|
|--------------------------------------------------------------|
|-----2-2-5----------------------2-2-5-------3b5r3------2-2-5--|
|-----2-2-5--5p2h5-5-5p0---------2-2-5-----2------------2-2-5--|
|-3p0-0-0----------------3p0h3p0-0-0-0-5-2----------3p0-0-0----|
|--------------------------------------------------------------|

E E E E E E E E E E E E E E      E E E
|------------------------------||-----------|
|-----------------------------o||--7-5-2----|
|------------------------------||--7-5-2----|
|-5p2h5-5-5p0------------------||--7-5-2----|
|-------------3-0-3-0---------o||--5-3-0----|
|---------------------3-0-3-0--||-----------|

Pat Travers Website ->  http://www.pattravers.com/

Duration Legend
---------------
W - whole; H - half; Q - quarter; E - 8th; S - 16th; T - 32nd
Related for Snortin Whiskey tab
×
Snortin Whiskey