Song name
# A B C D E F G H I J K L M N O P Q R S T U V W X Y Z

Patrice - Clouds tab

Patrice-Clouds: Standart Tuning


1. Guitar

den ganzen song durchgehend das hier:


   A         G         F       C
|---------|---------|-----|---------|
|------1--|------0--|-----|------1--|
|----2----|----0----|----2|----0----|
|---------|---------|--3--|0--------|
|--0------|---------|-----|-h3------|
|---------|--3------|-----|---------|


2. Guitar:

kurz nach beginn vom lied kommt diese gitarre dazu:

|----------7-5----------------------|
|--------------6--------------------|
|----------------7-5------5------5--|
|----7--7---------------7------5----|
|---------------------8------3------|
|-----------------------------------|


Das wars schon...also nicht so schwer;)

viel spaß.

Tap to rate this tab
# A B C D E F G H I J K L M N O P Q R S T U V W X Y Z