Song name
# A B C D E F G H I J K L M N O P Q R S T U V W X Y Z

Patrice - Dove Of Peace tab

-------------------------------------------------------------------------------
			     Dove Of Peace - Patrice
-------------------------------------------------------------------------------
Tabbed by:Busker

This is my first Tab. I chose an easy one for the beginning ;).
I'm not sure if this is 100% like he plays it but it sounds quite right.

The whole song consist of one riff. In the Verses he doesn't play all of the notes and 
the Bridge there isn't any guitar.

Standart Tuning. Capo on second.


      G          D              Am
e|---------3-----------3p2--------------------------------------------------|
B|-------------------------3-------------1--0-------0h1-------1h3-----------|
G|---------------------------------------2--2---2---2-----2---2-------------|
D|---------------0------------------------------2---------2-----------------|
A|-------------------------------0------------------------------------------|
E|----3---------------------------------------------------------------------|


************************************

| /   slide up
| \   slide down
| h   hammer-on
| p   pull-off
| ~   vibrato
| +   harmonic
| x   Mute note
| b   Bend
| pb  Pre-bend
| br  Bend release
| pbr Pre-bend release
| brb Bend release bend

************************************
Tap to rate this tab
 
# A B C D E F G H I J K L M N O P Q R S T U V W X Y Z