Song name
# A B C D E F G H I J K L M N O P Q R S T U V W X Y Z

Patrick Park - Nothings Wrong tab

http://www.patrickpark.net - official Patrick Park site

Patrick Park - Nothing's Wrong

These are the essential chords you need to play the song.
There's a bit of picking too, but I was too lazy to tab it all out.

Capo on 1st fret

Intro & verse:


e----3----2----0----0---------3----3----3----|
B----0----0----1----0----4----0----1----0----|
G----0----0----2----0----2----0----0----0----| 
D----0----0----2----2----1----0----2----0----|
A----x----x----0----2----0----2----3----2----|
E----3----3---------0---------3---------3----|



Chorus:


e------------0----0----0----0----1----0----0----1----0----3----|
B------------1----2----2----1----1----1----2----1----1----0----|
G--------0/2-2----0----3----2----2----0----3----2----0----0----| 
D----0/2-----2----2----0----2----3----2----0----3----2----0----|
A------------0----0----0----0----1----3----0----1----3----2----|
E--------------------------------1--------------1---------3----|


e----0----2----0----2----0---------|
B----1----3----1----3----1----4----|
G----2----2----2----2----0----2----| 
D----2----0----2----0----2----1----|
A----0----0----0----0----3----0----|
E----------------------------------|

the rest of the song is just a repeat of everything here



grptertius@yahoo.com
Tap to rate this tab
# A B C D E F G H I J K L M N O P Q R S T U V W X Y Z