Song name
# A B C D E F G H I J K L M N O P Q R S T U V W X Y Z

Patrick Stump - As Long As I Know Im Getting Paid tab

-----------------------------------------------------------------------------
		Patrick Stump - As long as I know I'm getiing paid (live)
-----------------------------------------------------------------------------
Tabbed by: smallispowerful
Email: nedpmcgowan@gmail.com
Tuning: Standard

This is a live version of A.L.A.I.K.I.G.P. played for Rolling Stone. The song is mostly 
one repeated riff, then a finale.

It's mostly correct, except for the bar at 3:11 which he plays really fast.

"| - |" - equals 4 beats
h       - Hammer on
x       - dead note
/       - slide up

~~~~~~~~~~~~~~~~~~~~~~~~~~~~~~~~~~~~~~~~~~~~~~~~~~~~~~~~~~~

First Verse:
0:49 - Em (slide to dead notes) (20x)
e|---/x-|
B|---/x-|
G|---/x-|
D|-2-/x-|
A|-2-/x-|
E|---/x-|


Chorus:
1:30 - C x4|Am7 C Em7 C|Em x4|Em x4| (x2)
e|---------|---------|---------|---------|
B|-1-1-1-1-|-1-1-0-1-|---------|---------|
G|-0-0-0-0-|-0-0-0-2-|---------|---------|
D|-2-2-2-2-|-2-2-2-2-|-2-2-2-2-|-2-2-2-2-|
A|-3-3-3-3-|-0-3-0-3-|-2-2-2-2-|-2-2-2-2-|
E|---------|---------|---------|---------|


1:48 - Em 2h3 (Bass E string)
e|-------|
B|-------|
G|-------|
D|-2-----|
A|-2-----|
E|---2h3-|

Verse 2: - 1:50 Em slides
Chorus: - 2:21

Solo: - 2:37
e|------------------------|--------------------------|
B|------------------------|--------------------------|
G|------------------------|--------------------------|
D|-7-7-7p5---5----------5-|-7-7-7h5----------5-------|
A|---------7---7-7--------|--------------5h7---------|
E|------------------------|----------5h7-------------|

e|------------------------|---------|-(In triplets)--|
B|------------------------|---------|--7-4-----------|
G|-7-7-7p5---5--------7/9-|-5-7-5-7-|------7--5------|
D|---------7---7-7--------|---------|-----------7-5--|
A|------------------------|---------|----------------|
E|------------------------|---------|----------------| x2

Refrain:
2:54 -
 |   CMaj7    |   BbMaj7    |   Bmaj7    |
e|------------|-------------|------------|
B|------------|-------------|------------|
G|-----8------|-----6-------|------7-----|
D|-----8------|-----6-------|------7-----|
A|-----6------|-----4-------|------5-----|
E|-----7------|-----5-------|------6-----| x2


Chorus + Finale:
3:11 - Em x4 | Am(h) C Am Am |
3:15 - Dm Em C Gsus4 | Em x4 |
e|---------|-----------|-------x-|---------|
B|---------|-1-1-1-1-1-|-3---1-3-|---------|
G|---------|--h2-0-2-2-|-2---0-0-|---------|
D|-2-2-2-2-|--h2-2-2-2-|---2-2-2-|-2-2-2-2-|
A|-2-2-2-2-|-----3-----|---2-3-3-|-2-2-2-2-|
E|---------|-----------|-------x-|---------|


3:21 - Em x4 | D Em | C C Em7 (D) | Em x4 |
e|---------|-2-2-----|-------(2)-|---------|
B|---------|-3-3-----|-1-1---(3)-|---------|
G|---------|-2-2-----|-0-0---(2)-|---------|
D|-2-2-2-2-|-----2-2-|-2-2-2-----|-2-2-2-2-|
A|-2-2-2-2-|-----2-2-|-3-3-0-----|-2-2-2-2-|
E|---------|---------|-----------|---------|


3:27 - Em x4 | C Gsus4 | Am Csus2 | Em x4|
e|---------|-----x-x-|---------|---------|
B|---------|-1-1-3-3-|-1-1-1-1-|---------|
G|---------|-0-0-0-0-|-2-2-0-0-|---------|
D|-2-2-2-2-|-2-2-2-2-|-2-2-0-0-|-2-2-2-2-|
A|-2-2-2-2-|-3-3-3-3-|-----2-2-|-2-2-2-2-|
E|---------|-----x-x-|---------|---------|

Ooooohs:
3:34 - Em | D Am | Am D | Em |
e|---------|-2-2-----|-----2-2-|---------|
B|---------|-3-3-1-1-|-1-1-3-3-|---------|
G|---------|-2-2-2-2-|-2-2-2-2-|---------|
D|-2-2-2-2-|-----2-2-|-2-2-----|-2-2-2-2-|
A|-2-2-2-2-|---------|---------|-2-2-2-2-|
E|---------|---------|---------|---------|


3:41 - C Am | CMaj7 D | G x4 | G x4 |
e|---------|-----3-3-|-3-3-3-3-|-3-3-3-3-|
B|-1-1-1-1-|-0-0-2-2-|-3-3-3-3-|-3-3-3-3-|
G|-0-0-2-2-|-0-0-3-3-|-0-0-0-0-|-0-0-0-0-|
D|-2-2-2-2-|-2-2-----|-0-0-0-0-|-0-0-0-0-|
A|-3-3-0-0-|-3-3-----|-2-2-2-2-|-2-2-2-2-|
E|---------|---------|-3-3-3-3-|-3-3-3-3-|


3:50 - Am C ?| Em D | G x4 | G x4 |
e|---------|-----2-2-|-3-3-3-3-|-3-3-3-3-|
B|-1-1-1-1-|-----3-3-|-3-3-3-3-|-3-3-3-3-|
G|-2-2-0-0-|-----2-2-|-0-0-0-0-|-0-0-0-0-|
D|-2-2-2-2-|-2-2-----|-0-0-0-0-|-0-0-0-0-|
A|-----3-3-|-2-2-----|-2-2-2-2-|-2-2-2-2-|
E|---------|---------|-3-3-3-3-|-3-3-3-3-|


3:57 - C | Am7 C Em7 C | Em x4 | [Em x4] ?|
e|---------|---------|---------|---------|
B|-1-1-1-1-|-1-1-0-1-|-0-0-0-0-|-0-0-0-0-|
G|-0-0-0-0-|-0-0-0-0-|-0-0-0-0-|-0-0-0-0-|
D|-2-2-2-2-|-2-2-2-0-|-2-2-2-2-|-2-2-2-2-|
A|-3-3-3-3-|-0-3-2-2-|-2-2-2-2-|-2-2-2-2-|
E|---------|---------|-0-0-0-0-|-0-0-0-0-|


4:06 - C | Am7 C Em7 C | Em x x x | Em x x x |
e|---------|---------|---------|---------|
B|-1-1-1-1-|-1-1-1-1-|-0-x-x-x-|-0-x-x-x-|
G|-0-0-0-0-|-0-0-0-0-|-0-x-x-x-|-0-x-x-x-|
D|-2-2-2-2-|-2-2-0-2-|-2-x-x-x-|-2-x-x-x-|
A|-3-3-3-3-|-0-3-2-3-|-2-x-x-x-|-2-x-x-x-|
E|---------|---------|-0-x-x-x-|-0-x-x-x-|


4:14 - C | Am7 | Em | Em |
e|---------|---------|---------|---------|
B|-1-1-1-1-|-1-1-1-1-|-0-0-0-0-|-0-0-0-0-|
G|-0-0-0-0-|-2-2-2-2-|-0-0-0-0-|-0-0-0-0-|
D|-2-2-2-2-|-2-2-2-2-|-2-2-2-2-|-2-2-2-2-|
A|-3-3-3-3-|-0-0-0-0-|-2-2-2-2-|-2-2-2-2-|
E|---------|---------|-0-0-0-0-|-0-0-0-0-|


4:20 - C | Em7 | Em | Em  H 2-3 (Bass E string)
e|---------|---------|---------|---------|-------||
B|-1-1-1-1-|-1-1-1-1-|-0-0-0-0-|-0-0-0-0-|-------||
G|-0-0-0-0-|-0-0-0-0-|-0-0-0-0-|-0-0-0-0-|-------||
D|-2-2-2-2-|-0-0-0-0-|-2-2-2-2-|-2-2-2-2-|-2-----||
A|-3-3-3-3-|-2-2-2-2-|-2-2-2-2-|-2-2-2-2-|-2-----||
E|---------|---------|---------|---------|---2h3-||
Tap to rate this tab
# A B C D E F G H I J K L M N O P Q R S T U V W X Y Z