Song name
# A B C D E F G H I J K L M N O P Q R S T U V W X Y Z

Patrick Sweany - Them Shoes tab

Them Shoes by Patrick Sweany in open G

g----------------------------------------|
b----------------------------------------|
g--0---0-----3---3-----5---5---5---5-7-5-|
d----------------------------------------|
g-0---0---0-3---3--3-5---5---5---5-------|
G----------------------------------------|

harmonized with "my eyes are focused on..."
g----5--3--0--------0-------0---------------|
b------------1--------1-------1-----1-------|
g--------------3p0------3p0-----3p0---------|
d-------------------------------------------|
g-------------------------------------------|
G-------------------------------------------|


The change up:
g---------------------------------------|
b---------------------------------6-----|
g--7p6h7p6h7--0--3~~~--0-0--5h6h7---5b--|
d---------------------------------------|
g---------------------------------------|
G---------------------------------------|

http://patricksweany.com/
Tap to rate this tab
# A B C D E F G H I J K L M N O P Q R S T U V W X Y Z