Song name
# A B C D E F G H I J K L M N O P Q R S T U V W X Y Z

Patrick Watson - Fireweed tab

-------------------------------------------------------------------------------
			     FIREWEED - Patrick Watson
-------------------------------------------------------------------------------
Tabbed by: Tibbs32
Email: N/A

Fairly certain this is 100% correct; I listened through many times. Great song, enjoy playing it.

Tuning: standard

e|-----------------------------------------------------------------| 
B|---------9---------------9---------------7---------------7-------| 
G|-----9-----9---9-----9-----9---9-----8-----8---8-----8-----8---8-| 
D|---9---------9-----9---------9-----8---------8-----8---------8---| 
A|-7-----7---------7-----7---------6-----6---------6-----6---------| 
E|-----------------------------------------------------------------| 
                                                                      
e|-----------------------------------------------------------------| 
B|---------7---------------7---------------4---------------4-------| 
G|-----8-----8---8-----8-----8---8-----4-----4---4-----4-----4---4-|
D|---9---------9-----9---------9-----6---------6-----6---------6---|
A|-----------------------------------------------------------------|
E|-7-----7---------7-----7---------4-----4---------4-----4---------|
                                                                      x2
e|-----------------------------------------------------------------|
B|---------9---------------9---------------7---------------7-------|
G|-----9-----9---9-----9-----9---9-----8-----8---8-----8-----8---8-|
D|---9---------9-----9---------9-----8---------8-----8---------8---|
A|-7-----7---------7-----7---------6-----6---------6-----6---------|
E|-----------------------------------------------------------------|

e|-----------------------------------------------------------------|
B|---------4---------------4---------------2---------------2-------|
G|-----4-----4---4-----4-----4---4-----3-----3---3-----3-----3---3-| 
D|---6---------6-----6---------6-----4---------4-----4---------4---|
A|-----------------------------------------------------------------|
E|-4-----4---------4-----4---------2-----2---------2-----2---------|

e|---------------------------|
B|---------0---------------0-|
G|-----2-----2---2--(x12)--2-|
D|---4---------4-----------4-|
A|-4-----4-----------------5-|
E|---------------------------|

e|-----------------------------------------0---------------0-------|
B|---------5---------------5-----------2-----2---2-----2-----2---2-|
G|-----6-----6---6-----6-----6---6---2---------2-----2---------2---|
D|---6---------6-----6---------6-----------------------------------|
A|-4-----4---------4-----4---------0-----0---------0-----0---------|
E|-----------------------------------------------------------------|

e|-----------------------------------------2---------------2-------|
B|---------2---------------2-----------3-----3---3-----3-----3---3-|
G|-----2-----2---2-----2-----2---2---2---------2-----2---------2---|
D|---4---------4-----4---------4---0-----0---------0-----0---------|
A|-----------------------------------------------------------------|
E|-2-----2---------2-----2-----------------------------------------|
                                                                      x2
e|-----------------------------------------------------------------|
B|---------5---------------5---------------2---------------2-------|
G|-----6-----6---6-----6-----6---6-----2-----2---2-----2-----2---2-|
D|---6---------6-----6---------6-----4---------4-----4---------4---|
A|-4-----4---------4-----4-----------------------------------------|
E|---------------------------------2-----2---------2-----2---------|

e|-----------------------------------------2---------------2-------|
B|---------0---------------0-----------3-----3---3-----3-----3---3-|
G|-----1-----1---1-----1-----1---1---2---------2-----2---------2---|
D|---2---------2-----2---------2---0-----0---------0-----0---------|
A|-----------------------------------------------------------------|
E|-0-----0---------0-----0-----------------------------------------|


e|-----------------------------------------0---------------0-------|
B|---------5---------------5-----------2-----2---2-----2-----2---2-|
G|-----6-----6---6-----6-----6---6---2---------2-----2---------2---|
D|---6---------6-----6---------6-----------------------------------|
A|-4-----4---------4-----4---------0-----0---------0-----0---------|
E|-----------------------------------------------------------------|

e|-----------------------------------------2---------------2-------|
B|---------2---------------2-----------3-----3---3-----3-----3---3-|
G|-----2-----2---2-----2-----2---2---2---------2-----2---------2---|
D|---4---------4-----4---------4---0-----0---------0-----0---------|
A|-----------------------------------------------------------------|
E|-2-----2---------2-----2-----------------------------------------|
                                                                      
e|-----------------------------------------------------------------|
B|---------5---------------5---------------2---------------2-------|
G|-----6-----6---6-----6-----6---6-----2-----2---2-----2-----2---2-|
D|---6---------6-----6---------6-----4---------4-----4---------4---|
A|-4-----4---------4-----4-----------------------------------------|
E|---------------------------------2-----2---------2-----2---------|

e|---|
B|-0-|
G|-1-| let ring
D|-2-|
A|-2-|
E|-0-|

Chords used:

     E  D#m  B  G#m  F#  C#/F#mSus4  D6 C#m  A  F#m  D   E(var.2)

e|---x---x---x---x---x-------x-------x---x---0---x---2---x---|
B|---9---7---7---4---2-------0-------0---5---2---2---3---0---|
G|---9---8---8---4---3-------2-------2---6---2---2---2---1---|
D|---9---8---9---6---4-------4-------4---6---x---4---0---2---|
A|---7---6---x---x---x-------4-------5---4---0---x---x---2---|
E|---x---x---7---4---2-------x-------x---x---x---2---x---0---|




************************************

| /   slide up
| \   slide down
| h   hammer-on
| p   pull-off
| ~   vibrato
| +   harmonic
| x   Mute note
| b   Bend
| pb  Pre-bend
| br  Bend release
| pbr Pre-bend release
| brb Bend release bend

************************************
Tap to rate this tab
 
# A B C D E F G H I J K L M N O P Q R S T U V W X Y Z