Song name
# A B C D E F G H I J K L M N O P Q R S T U V W X Y Z

Pattern Is Movement - Sylvia tab

-------------------------------------------------------------------------------
     Sylvia - Pattern Is Movement
-------------------------------------------------------------------------------
Tabbed by: mjohnson1915
Tuning: Standard

Pattern Is Movement has been signed with NFI and Hometapes. Tumblr here:
http://patternismovement.tumblr.com/

CHORUS (Alright...Sylvia...)

GUITAR
e|-------------------------------------|
B|-----2-----2-----2-----2-----2-----2-|
G|-------------------------------------|
D|---3-----3-----2-----2-----2-----2---|
A|-1-----1-----0-----0-----0-----0-----|
E|-------------------------------------|

e|-------------------------------------|
B|-----2-----2-----2-----2-----2-----2-|
G|-------------------------------------|
D|---3-----3-----2-----2-----2-----2---|
A|-1-----1-----0-----0-----0-----0-----|
E|-------------------------------------|

e|-------------------------------------------------|
B|-----2-----2-----2-----2-----2-----2-----2-----2-|
G|-------------------------------------------------|
D|---3-----3-----2-----2-----2-----2-----2-----2---|
A|-1-----1-----0-----0-----0-----0-----0-----0-----|
E|-------------------------------------------------|

VIOLIN
e|-------14~~13~12~~~~~~~~~~~~~~~~~~~~~|
B|-------------------------------------|
G|-------------------------------------|
D|-------------------------------------|
A|-------------------------------------|
E|-------------------------------------|

VERSE

PART 1 (Welcome.../Oh this desk...)
[Note: The piano mimics the vocal melody, playing on the second and third offbeats of
the triplets to create a waltz rhythm. The only difference is that after the vocal melody
pauses the piano descends one step further in the subsequent three beats, leading into 
the second part of the verse.]
e|--------------------------------------------|
B|-----2-----2-----2-----2-----2-----2-----2--|
G|--------------------------------------------|
D|---4-----4-----4-----4-----4-----4-----4----|
A|-2-----2-----1-----1-----0-----0-----0------|
E|--------------------------------------------|

PART 2 (Take what you want.../Windings and curls and.../Everyone, I'm ready...)
e|-------------------------------------------------------------------------|
B|-------------------------------------------------------------------------|
G|-----3-----3-----3-----3-----3-----3-----3-----3-----3-----3-----4-----4-|
D|-------------------------------------------------------------------------|
A|---5-----5-----5-----5-----5-----5-----5-----5-----5-----5-----6-----6---|
E|-3-----3-----4-----4-----3-----3-----4-----4-----3-----3-----4-----4-----|

e|-------------------------|
B|-------------------------|
G|-----4-----4-----4-------|
D|-------------------------|
A|---7-----7-----7---------|
E|-5-----5-----5-----------|

SEQUENCE: CHORUS->VERSE 1->VERSE 2->CHORUS->VERSE 1->VERSE 2->CHORUS->VERSE 2->CHORUS
[Note: At the end of the last chorus run there's a tone on the offbeat approximately
high E string 17th fret.]

************************************

| /   slide up
| \   slide down
| h   hammer-on
| p   pull-off
| ~   vibrato
| +   harmonic
| x   Mute note
| b   Bend
| pb  Pre-bend
| br  Bend release
| pbr Pre-bend release
| brb Bend release bend

************************************
Tap to rate this tab
# A B C D E F G H I J K L M N O P Q R S T U V W X Y Z