Song name
# A B C D E F G H I J K L M N O P Q R S T U V W X Y Z

Patti Rothberg - Its Alright tab

-------------------------------------------------------------------------------
			  Get Set Go - It's Alright
-------------------------------------------------------------------------------
Tabbed by: mg102

Tuning: Standard

Main Chords:

NOTE: These chords are played over and over throughout the entire song. The strumming
changes from verse to chorus, but its always the same chords in the same order until you
to the bridge. This is probably one of the easiest songs to play, but it's a fun song 
Highly recommended for those just learning how to play.

e|---------------------------------------------------------------------------|
B|---------------------------------------------------------------------------|
G|---------------------------------------------------------------------------|
D|---7-----------------------------------------------------------------------|
A|-9-5-7-9-------------------------------------------------------------------|
E|-7---5-7-------------------------------------------------------------------|

Bridge:

e|---------------------------------------------------------------------------|
B|---------------------------------------------------------------------------|
G|---------------------------------------------------------------------------|
D|---------9~~-7~~-6-4-------------------------------------------------------|
A|-9~~-7~~-7~~-5~~-4-2-----x2------------------------------------------------|
E|-7~~-5~~-------------------------------------------------------------------|

===============================================================================
Tap to rate this tab
# A B C D E F G H I J K L M N O P Q R S T U V W X Y Z