Song name
# A B C D E F G H I J K L M N O P Q R S T U V W X Y Z

Paul Banks - Narc tab

NARC by Paul Banks -Remix edition- 

Play with acoustic guitar.
Tabbed by FranP

****** Verse 1 
e---------------------------------------|          
B---------------------------------------|          
G--7~--------------4~--------------11~--|        
D--7~--------------4~--------------11~--|        
A--5~--------------2~---------------9~--|          
E---------------------------------------|  

 (first line acoustinc only)
 Touch your thighs, I am the lonely one
 Remember that last sweat           That was the right one  
    Oh,      you mysteries are moving in the sun

e-----------------------------------------------------|          
b-----------------------------------------------------|          
g--7~-------------------4~-----------7~---------------|        
d--7~-------------------4~-----------7~---------------|        
a--5~-------------------2~-----------5~---------------|          
e-----------------------------------------------------|  
  I show some love and respect  ...God loves you Beth

****** CHORUS ******************* 

(Variations of Bm*, Em* & Em7 )

e-7--//-7-//-7-//-7-7-7-7-7-7-7-7---|
b-7--//-7-//-7-//-8-7-8-7-8-7-8-7---|
g-7--//-9-//-9-//-7-7-7-7-7-7-7-7---|  
d-9--//-7-//-9-//-9-9-9-9-9-9-9-9---|
a-10-//---//-7-//-7-7-7-7-7-7-7-7---|
e-7--//---//---//-------------------|

(first line acoustinc only)
     She found the lonely sound
She keeps on waiting for time out there
Love, can you love me, babe?
Love, is this loving, babe?
Is time turning around?

******************

(PAUSE)

******* VERSE 2-
e---------------------------------------|          
B---------------------------------------|          
G--7~--------------4~--------------11~--|        
D--7~--------------4~--------------11~--|        
A--5~--------------2~---------------9~--|          
E---------------------------------------|  
(first line acoustinc only)
Feast your eyes, I am the only one
Control me, console me Cause that's just how it should be done
Oh,  history's cach up fire from a busted gun
I show some love and respect... so that we met

****END

e----------------------|          
B----------------------|          
G--4~--------------7~--|        
D--4~--------------7~--|        
A--2~--------------5~--|          
E----------------------|  
Tap to rate this tab
# A B C D E F G H I J K L M N O P Q R S T U V W X Y Z