Song name
# A B C D E F G H I J K L M N O P Q R S T U V W X Y Z

Paul Desmond - Take Five tab

TAKE FIVE by Paul Desmond

tab by Colin Johns

This piece is in 5/4 time but think of it as 3/4 + 2/4

best viewed in Courier New
 
     |       |       |        |        |
E--------------------------------------------||
B--------------------------------------8--10-||
G---------------------------------9----------||
D-----------------------------9--------------||
A--------------------------------------------||
E--------------------------------------------||

    Em                        Bm7
    |        |       |        |        |
E---6---7----6--------------------------------|
B-------0-------10---8--------0---------------|
G--------------------------------------7------|
D--------------------9--------9---------------|
A---------------------------------------------|
E---0-----------0----------------------7------|

    Em                        Bm7
    |        |       |        |        |
E---0-------------------------2-3-2-0---------|
B-------0------------0--------0--------3------|
G---------------------------------------------|
D---------------2-----------------------------|
A--------------------------------------2------|
E---0-----------------------------------------|

    Em                        Bm7
    |        |       |        |        |
E---0-----------------------------------------|
B-------0------------0--------3-5-3-0---------|
G-----------------------------4--------2------|
D---------------2-----------------------------|
A--------------------------------------2------|
E---0-----------------------------------------|

    Em                        Bm7
    |        |       |        |        |
E---------------------------------0-----------|
B---0-------------------------0--------8--10--|
G-------4------------4------------------------|
D----------------2------------9---------------|
A---------------------------------------------|
E---0----------------------------------7------|

    Em                        Bm7
    |        |       |        |        |
E---6----7---6--------------------------------|
B--------0------10---8--------0---------------|
G--------------------------------------7------|
D--------------------9--------9---------------|
A---------------------------------------------|
E---0-----------0----------------------7------|

    Em                        Bm7
    |        |       |        |        |
E---0-----------------------------------------|
B--------0-----------0--------3-5-3-0---------|
G-----------------------------4--------2------|
D---------------2-----------------------------|
A--------------------------------------2------|
E---0-----------------------------------------|

    Em                        Bm7
    |        |       |        |        |
E-----------------------------2-3-2-0---------|
B---0-------------------------0--------3------|
G-------4------------4------------------------|
D----------------2----------------------------|
A--------------------------------------2------|
E---0-----------------------------------------|

    Em                        
    |        |       |        |        |
E---0----------------------------------------||
B-------0------------0--------0--------------||
G--------------------------------------------||
D----------------2---------------------2-----||
A--------------------------------------------||
E---0----------------------------------------||

    C                         Am6
    |        |       |        |        |
E---0----3-------0----------------------------|
B--------------------1-------------0---1---2--|
G--------0-----------0--------2--------2------|
D-----------------------------4---------------|
A---3------------3----------------------------|
E---------------------------------------------|

    Bm                        Em
    |        |       |        |        |
E--------2------------------------------------|
B---3------------3------------------------0---|
G--------------------4--------0----2---3------|
D--------4-----------4--------2--------5------|
A---2------------2----------------------------|
E---------------------------------------------|

    Am                        D
    |        |       |        |        |
E--------0------------------------------------|
B---1------------1----------------------------|
G--------------------2-------------0---2---3--|
D--------2-----------2--------4--------4------|
A---0------------0------------5---------------|
E---------------------------------------------|

    G           
    |        |       |        |        |
E---------------------------------------------|
B------------0---1---3-------------2---3---4--|
G-------2------------------------------0------|
D-------0----------------0--------------------|
A----------------2----------------------------|
E---3-----------------------------------------|

    C                         Am6
    |        |       |        |        |
E---0----3-------0----------------------------|
B--------------------1-------------0---1---2--|
G--------0-----------0--------2--------2------|
D-----------------------------4---------------|
A---3------------3----------------------------|
E---------------------------------------------|

    Bm                        Em
    |        |       |        |        |
E--------2------------------------------------|
B---3------------3------------------------0---|
G--------------------4--------0----2---3------|
D--------4-----------4--------2--------5------|
A---2------------2----------------------------|
E---------------------------------------------|

    Am                        D7
    |        |       |        |        |
E--------0------------------------------------|
B---1------------1---------------------3------|
G--------------------2-------------2-------5--|
D--------2-----------2--------4--------4------|
A---0------------0------------5---------------|
E---------------------------------------------|

    F#m7                      B7
    |        |       |        |        |
E--------------------------------------------||
B---0----------------------------------8--10-||
G--------------------------------------------||
D-------2------------2------------9----------||
A-----------------------------6--------------||
E---2------------2---------------------------||

    Em                        Bm7
    |        |       |        |        |
E---6---7----6--------------------------------|
B-------0-------10---8--------0---------------|
G--------------------------------------7------|
D--------------------9--------9---------------|
A---------------------------------------------|
E---0-----------0----------------------7------|

    Em                        Bm7
    |        |       |        |        |
E---0-------------------------2-3-2-0---------|
B-------0------------0--------0--------3------|
G---------------------------------------------|
D---------------2-----------------------------|
A--------------------------------------2------|
E---0-----------------------------------------|

    Em                        Bm7
    |        |       |        |        |
E---0-----------------------------------------|
B-------0------------0--------3-5-3-0---------|
G-----------------------------4--------2------|
D---------------2-----------------------------|
A--------------------------------------2------|
E---0-----------------------------------------|

    Em                        Bm7
    |        |       |        |        |
E---------------------------------0-----------|
B---0-------------------------0--------8--10--|
G-------4------------4------------------------|
D----------------2------------9---------------|
A---------------------------------------------|
E---0----------------------------------7------|

    Em                        Bm7
    |        |       |        |        |
E---6----7---6--------------------------------|
B--------0------10---8--------0---------------|
G--------------------------------------7------|
D--------------------9--------9---------------|
A---------------------------------------------|
E---0-----------0----------------------7------|

    Em                        Bm7
    |        |       |        |        |
E---0-----------------------------------------|
B--------0-----------0--------3-5-3-0---------|
G-----------------------------4--------2------|
D---------------------------------------------|
A--------------------------------------2------|
E---0-----------------------------------------|

    Em                        Bm7
    |        |       |        |        |
E-----------------------------2-3-2-0---------|
B---0-------------------------0--------3------|
G-------4------------4------------------------|
D----------------2----------------------------|
A--------------------------------------2------|
E---0-----------------------------------------|

     Em                       Bm7
     |       |       |        |        |
E----0------------------------7---------------|
B--------0-----------0--------7---------------|
G-----------------------------7---------------|
D---------------2-----------------------------|
A---------------------------------------------|
E----0---------------------------------7------|

     Em                       Bm7
     |       |       |        |        |
E----0------------------------7---------------|
B--------0-----------0--------7---------------|
G--------0--------------------7---------------|
D---------------2-----------------------------|
A---------------------------------------------|
E----0---------------------------------7------|

     Em                       Bm7
     |       |       |        |        |
E----0------------------------7---------------|
B--------0-----------0--------7---------------|
G--------0--------------------7---------------|
D---------------2-----------------------------|
A---------------------------------------------|
E----0---------------------------------7------|

     Em
     |       |       |        |        |
E----0---------------------------------------||
B----0---------------------------------------||
G----0---------------------------------------||
D----0---------------------------------------||
A----2---------------------------------------||
E----0---------------------------------------||

Tap to rate this tab
# A B C D E F G H I J K L M N O P Q R S T U V W X Y Z