Song name
# A B C D E F G H I J K L M N O P Q R S T U V W X Y Z

Paul Gilbert - Toccata And Fugue tab

Help us improve GuitareTab! Take a short survey!
Gtr I (E A D G B E) - 'Track 1'


  Q=120
 4/4
  Gtr I
          T     T    T    T        T    T    T    T    T    T    T    T
  H    S  S  S  S S  S S  S     S  S S  S S  S S  S S  S S  S S  S S  S
|---------------------------||------------------------------------------|
|---------------------------||o-----------------------------------------|
|---------------------------||------------------------------------------|
|--------12-10-12-8-12-7-12-||--5-12-4-12-5-12-7-12-8-12-0-12-2-12-4-12-|
|---------------------------||o-----------------------------------------|
|---------------------------||------------------------------------------|


     T    T    T    T    T     T    T    T
  S  S S  S S  S S  S S  S  S  S S  S S  S
|------------------------------------------|
|------------------------------------------|
|-----------------------12-10-12-8-12-7-12-|
|-5-12-4-12-5-12-7-12-8--------------------|
|------------------------------------------|
|------------------------------------------|


     T    T    T    T    T    T    T    T
  S  S S  S S  S S  S S  S S  S S  S S  S
|-----------------------------------------|
|-----------------------------------------|
|-5-12-4-12-5-12-7-12-8-12-0-12-2-12-4-12-|
|-----------------------------------------|
|-----------------------------------------|
|-----------------------------------------|


  1.
     T    T    T    T    T     T    T    T
  S  S S  S S  S S  S S  S  S  S S  S S  S
|-------------------------------------------||
|------------------------------------------o||
|-5-12-4-12-5-12-7-12-8---------------------||
|-----------------------12-10-12-8-12-7-12--||
|------------------------------------------o||
|-------------------------------------------||


  2.
     T    T    T    T    T    T    T    T
  S  S S  S S  S S  S S  S S  S S  S S  S
|-----------------------------------------|
|-----------------------------------------|
|-5-12-4-12-5-12-7-12-8-12-8-12-8-12-8-12-|
|-----------------------------------------|
|-----------------------------------------|
|-----------------------------------------|


     T    T    T    T     T    T     T    T
  S  S S  S S  S S  S  S  S S  S  S  S S  S
|-------------------------------------------|
|-------------------------------------------|
|-8-12-5-12-8-12-5-12-10-13-7-13-10-13-7-13-|
|-------------------------------------------|
|-------------------------------------------|
|-------------------------------------------|


     T    T    T    T     T    T     T    T
  S  S S  S S  S S  S  S  S S  S  S  S S  S
|-------------------------------------------|
|-------------------------------------------|
|-8-12-5-12-8-12-5-12-10-13-7-13-10-13-7-13-|
|-------------------------------------------|
|-------------------------------------------|
|-------------------------------------------|


     T    T    T                T
                         |----3-----|
  S  S S  S S  S E E S S S S S  S S S
|-------------------------------------|
|-------------------------------------|
|-8-12-5-12-8-12-5-4-9-7-0-4-7-12-7-4-|
|-------------------------------------|
|-------------------------------------|
|-------------------------------------|


         T            T
  |----3-----| |----3-----|
  S S S  S S S S S S  S S S S S S S S S S S
|-------------------------------------------|
|-------------------------------------------|
|-0-4-7-12-7-4-0-4-7-16-7-4-0-2-0---0-7-5-0-|
|---------------------------------0---------|
|-------------------------------------------|
|-------------------------------------------|


             T      T        T      T            T  T  T
  S S S S S  S S S  S  S  S  S S S  S S   S S S  S  S  S S S S H
|---------------------------------------|-------------------------||
|---------------------------------------|-------------------------||
|-----0-5-7-12-7-5-17-10-12-17-5-7-16-4-|-0-4-7-12S16S12-7-4-0-0--||
|---------------------------------------|----------------------0--||
|-3-5-----------------------------------|-------------------------||
|---------------------------------------|----------------------3--||

Related for Toccata And Fugue tab