Song name
# A B C D E F G H I J K L M N O P Q R S T U V W X Y Z

Paul Gilbert - Red House tab

Red House

Paul Gilbert

----11----10--7-------------------------------------------|
----10-----9--7----10b12---10b12--10-10b12-10slowbend12---|
-/11---/10----7h8-----------------------------------------|
--------------7-------------------------------------------|
----------------------------------------------------------|
----------------------------------------------------------|

-------------------------------------------------------------------|
-10b12r10p7------7-10----7-----------------------------------------|
------------9b10------10---10-9-7---7-9b10r9p7-----7-7-------------|
----------------------------------9------------9-7-----9-----------|
-------------------------------------------------------------------|
-----------------------------------------------------------/12\----|

-------------------------------------7---|
-----------------------------------------|
-9b10--7~--9b10--7~~~~-----------7h8-----|
-----------------------------7-9---------|
-----------------------7-8-9-------------|
-----------------------------------------|

--------------7-----------------------------------|
-b12r10--7----------------------------------------|
-----------10---10p9p7---7-9--9b10r9p7---7h8------|
-----------------------9---------------9-----9~~--|
--------------------------------------------------|
--------------------------------------------------|

---------9-11-b12r11b12r11p9----------------|
-9-10-11---------------------10slowbend11---|
--------------------------------------------|
--------------------------------------------|
--------------------------------------------|
--------------------------------------------|

--------7h10p7h9h10p9p7----7----------------------------------------------|
-7h9h10-----------------10---10-9p7----7h10p7h9h10p9p7----7---------------|
------------------------------------10-----------------10---10p9p7---7----|
-------------------------------------------------------------------9---9--|
--------------------------------------------------------------------------|
--------------------------------------------------------------------------|

-----------------------------------------------------------------|
-----------------------------------------------------------------|
--------7/8~----------------------------------------------7/8~~--|
----7-9------9-7-9~-7h9p7---------------------7---7h9~-7---------|
-/9-----------------------9-8-7\5-------5-7/9---9--------9-------|
----------------------------------7-5-7--------------------------|





-----------9--|
--------9-----|
--------9-----|
--------8-----|
-7-8-9--9-----|
--------------|

There’s a red house over yonder  E9

That’s where my baby stays….

|------------------------------------------7--------------------------------|
|----------------------------9b10==r9p7-------------------------------------|
|-6b7r6--4-----4-9b10--7----------------10---10p9-7---9b11r9p7-----7h8------|
|----------7p4-----------9p7------------------------9----------9-7-----9~~--|
|---------------------------------------------------------------------------|
|---------------------------------------------------------------------------|

E9  There’s a red house over yonder

|-10b12r10p7--------------------------------|
|------------10p9p7-------------------------|
|-------------------10-9p7------------------|
|--------------------------9p7--------------|
|------------------------------9p8p7\5------|
|--------------------------------------7p5--|

That’s where my baby stays….

|----------------------------------------------------|
|----------------------------------------------------|
|-9b11---b11---[7]-x------------------------7/8------|
|----------------------7h9p7------------7h9------9~--|
|----------------------------9-8--7-8-9--------------|
|----------------------------------------------------|

F#9  Iain’t been back home to see her…  F9--E9

In 99 and 1 ½ days…

|--------7-----------------------------------------------------------------------|
|-10b12~---10-7------7-9-[9]b10--7-----------------------------------------------|
|---------------9b10---------------10-9-7---7-9-10b11~--9b11r9p7---------7/9\7~--|
|-----------------------------------------9--------------------------------------|
|----------------------------------------------------------------9-7-8-9~--------|
|--------------------------------------------------------------------------------|

B7  Wait a minute something’s wrong..  E9

My key won’t unlock this door…    I keep trying.. Woo!!!

|-7--------------10b12r10p7------------------------------------------------|
|---10p7--------------------10p9p7\6h7h9p7p6---6-----------6h10p6h7h10p7p6-|
|--------9b11--------------------------------9---9p7p6h7h9-----------------|
|--------------------------------------------------------------------------|
|--------------------------------------------------------------------------|
|--------------------------------------------------------------------------|

|-------------------------------|
|---6---------------------------|
|-9---9p7p6---------------------|
|-----------9p7-----------------|
|---------------9p8p7\5\4-------|
|-------------------------5/7~--|

E9   Wait a minute something’s wrong..  E9/\/\/\

My key won’t unlock this door…

|-------------------------------------------------------------------------------------|
|-------------------------------------9b10r9p7----------------------------------------|
|--------4---6b7~--------4---9b10r9p7----------9-7---7-[9]b10r9-----7-7---------------|
|----4h6---6---------4h6---6-----------------------9------------9-7-----9p7---7-9-9~--|
|-/6--------------/6--------------------------------------------------------9---------|
|-------------------------------------------------------------------------------------|

F#9 I got a bad bad feeling… F9--E9

That my baby don’t live here no more….

       But that’s ok..   Cuz I still got..    My guitar…

|------------------------------------------------|
|-----------------10b12~~~-----------------------|
|-------7h9-7~-------------------9b11~~---9b11~--|
|-7h9-7------------------------------------------|
|------------------------------------------------|
|------------------------------------------------|


SOLO 1

|--7--------|---12b14~~-10------------------------------------------|
|o---10p7--o|--------------12~--9b10r9p7h9h10p9p7----7--------------|
|-----------|-------------------------------------10---10p9p7h9h10--|
|-----------|-------------------------------------------------------|
|o---------o|-------------------------------------------------------|
|-----------|-------------------------------------------------------|

--------------------------------------------------------------------|
-7h10p7h9h10p9p7----7-------------7h10p7h9h10p9p7----7--------------|
-----------------10---10p9p7h9h10-----------------10---10p9p7h9h10--|
--------------------------------------------------------------------|
--------------------------------------------------------------------|
--------------------------------------------------------------------|

---------------------------7-------------7h10p7h9h10p9p7/9h12p9h10h12p10p9--|
-7h10p7h9h10p9p7----7h9h10---10p9p7h9h10------------------------------------|
-----------------10---------------------------------------------------------|
----------------------------------------------------------------------------|
----------------------------------------------------------------------------|
----------------------------------------------------------------------------|

-7h9h10p9p7----7--------------|
------------10---10-9h10p9p7--|
------------------------------|
------------------------------|
------------------------------|
------------------------------|





-----------7--------------------------------------|
----7h9h10---10-9h10p9p7----7---------------------|
-10----------------------10---10-9p7---9-7~~~~~---|
-------------------------------------9------------|
--------------------------------------------------|
--------------------------------------------------|

-------------------------------------------------|
-------------------------------------------------|
-6b7r6--6b7r6--6b7r6--6b7r6--6b7r6p4-----4\2~~---|
-------------------------------------7p4---------|
-------------------------------------------------|
-------------------------------------------------|

-----------------------------------------------------------7-|
---------------------------------7h10p7h9h10p9p7----7h9h10---|
---------4------10\9b10r9s7h9h10-----------------10----------|
-----4-6---6/10----------------------------------------------|
-4/6---------------------------------------------------------|
-------------------------------------------------------------|

-----------------------------------------------|
-10p9p7----7h10p7h9h10p9p7----7----------------|
--------10-----------------10---10-9p7---7-----|
---------------------------------------9---9~--|
-----------------------------------------------|
-----------------------------------------------|

------9-11b12r11p9/14-18~~-14-------------------------------------|
-9/10-------------------------17p14-------------------------------|
------------------------------------16p15----16p15----------------|
------------------------------------------16-------16-14\13-14~~--|
------------------------------------------------------------------|

-----------------------------------------------------------|
-----------------------------------------------------------|
-----------9-11-b13r11--b13r11slowbend13r11p9-------9\7~~--|
------9h11-------------------------------------11p9--------|
-9/11------------------------------------------------------|
-----------------------------------------------------------|

------------------19---------------------------------------------------|
-22b24~~r22p19-------22-21-19------------------------------------------|
---------------22-------------22-21-19-21b22--19----------------19h20--|
-------------------------------------------------21p19----19-21--------|
-------------------------------------------------------21--------------|
-----------------------------------------------------------------------|


-19-22b24~~-22~-22p19h22p19----19----------------------|
----------------------------22----22-21-19-21-21b22~~--|
-------------------------------------------------------|
-------------------------------------------------------|
-------------------------------------------------------|
-------------------------------------------------------|


|--10h11h14p11p10-----|--13h14h17p14p13------|-17b19~-b19-b19~-b19\--|
|o----------------12-o|o----------------15--o|-----------------------|
|---------------------|----------------------|-----------------------|
|---------------------|----------------------|-----------------------|
|o-------------------o|o--------------------o|-----------------------|
|---------------------|----------------------|-----------------------|

|-7-10-7--------------------------------------------------------------------|
|--------10-7---------------------------------------------------------------|
|-------------10-9-7---7-9b11r9p7-----7-7-----------7-----------------------|
|--------------------9------------9-7-----9p7---7h9---9-7\6-7-6-------6-7/9-|
|---------------------------------------------9-----------------7-5h7-------|
|---------------------------------------------------------------------------|

|-------------------------------7h10p7h9h10p9p7----7---------------------------|
|------------9b10r9b10r9p7h9h10-----------------10---10p9p7----7h10p7h9h10p9p7-|
|-7-9b11r9p7------------------------------------------------10-----------------|
|------------------------------------------------------------------------------|
|------------------------------------------------------------------------------|
|------------------------------------------------------------------------------|

|-------------------|
|----7--------------|
|-10---10p9p7---7\--|
|-------------9-----|
|-------------------|
|-------------------|

   T      T           T    T      T        T      T           T      T
|------------------------------------------------------------------------------|
|-10-6h7-10-6h7p6p5--10-6-9/10-6-9-7p6p5--10-6h7-10-6h7p6p5--10-7h9-10-7h9p7p6-|
|------------------------------------------------------------------------------|
|------------------------------------------------------------------------------|
|------------------------------------------------------------------------------|
|------------------------------------------------------------------------------|

   T    T            T    T        T      T           T
|-----------------------------------------------------------------|
|-10-9-10-9p7p6h(9)-10-9-10-9p7p6-10-7h9-10-9p7p6-----------------|
|-------------------------------------------------h9-10-9p7p6h7h9-|
|-----------------------------------------------------------------|
|-----------------------------------------------------------------|
|-----------------------------------------------------------------|

   T      T
|--------------------------------|
|-10-6h7-10-6h7p6\5/6h7h9-7h9h10-|
|--------------------------------|
|--------------------------------|
|--------------------------------|
|--------------------------------|

   T       T           T        T          T
|-14-9h10-14-9h10p9p7-14-10h12-14-12p10p9-14-10p9p7-|
|---------------------------------------------------|
|---------------------------------------------------|
|---------------------------------------------------|
|---------------------------------------------------|
|---------------------------------------------------|




   T            T
|--------------------------------------|
|-14-10p9h10p7-10/12-10p9p7-10/21b22~~-|
|--------------------------------------|
|--------------------------------------|
|--------------------------------------|
|--------------------------------------|

|--------------14-18-19r18p14---------------------------|
|-----------------------------17p14---------------------|
|--------15-16----------------------16p15----15-16-15~--|
|-----16----------------------------------16------------|
|-------------------------------------------------------|
|-/14---------------------------------------------------|

         T                    T      T
|-----|---------------------|-------------------------|
|-----|o-------------------o|-------------------------|
|-/16-|--19-16p14p13h14h16--|-19-16-19-16p14p13h14h16-|
|-----|---------------------|-------------------------|
|-----|o-------------------o|-------------------------|
|-----|-----------------x3--|-------------------------|

|-12h14h16p14p12--------------------------------------------------------------|
|-----------------------------------------------------------------------------|
|----------------16p14p13----------------7-9-9b11r9p7---7--------6b7r6p4---4~-|
|-------------------------14\12~-----7-9--------------9---9~-6p4---------6----|
|---------------------------------/9------------------------------------------|
|-----------------------------------------------------------------------------|

|-----------7-------------------------------------------------------------|
|-7b9--9b10---10p7------7h10p9p7----7-------------------------------------|
|------------------9b10----------10---10p9p7---7--------------------------|
|--------------------------------------------9---9p7---9p7---7------------|
|----------------------------------------------------9-----9---9p7h8h9~~--|
|-------------------------------------------------------------------------|

There’s a Red House over Yonder… E9

Way down across the hill…

|-------------------------------------------------------------------------------|
|-----------------------------------------------------------9b10r9p7\6----------|
|-7/8-----------4-----9b11-7-------------------------7--9--------------9p7------|
|-----------4-6---6p4----------9p7---7-9-----7---9--------7----------------9-9~-|
|--------/6------------------------9-----8h9---9---9----------------------------|
|-------------------------------------------------------------------------------|

E9  There’s a Red House over Yonder… E9

Way down across the hill…

|----------------------------------------------------|
|-7----7/9\7-----------------------------------------|
|-7h8------------------------------------------------|
|-7----7/9\7--6h7-6----------------------------------|
|--------------------7/9--7-/5------------7-5--------|
|-------------------------------7-7p5h7p5------7-7~--|

F#9 And if my baby don’t love me no more….F9--E9

I know her sister will…

|------------------------------------------------------------|
|---------------------------------9b11-9-7---7-7-------10-9~-|
|-6b7--6b7r6p4-----4--9b11-7------9b11-9-7---7-7-------9--8~-|
|--------------6-4------------9-7----------9-----9\----8--7~-|
|------------------------------------------------------------|
|------------------------------------------------------8--7~-|
Tap to rate this tab
# A B C D E F G H I J K L M N O P Q R S T U V W X Y Z