Song name
# A B C D E F G H I J K L M N O P Q R S T U V W X Y Z

Paul Gilbert - Metal Dog tab

           Paul Gilbert - Metal Dog

      W                   W                   W
E||--------------------|-------------------|-------------------|
B||--------------------|-------------------|-------------------|
G||*-------------------|-------------------|-------------------|
D||*-------------------|-------------------|-------------------|
A||--------------------|-------------------|-------------------|
E||--------------------|-------------------|-------------------|


                             PM PM   PM PM   PM PM   PM PM     PM PM
  Q    Q    Q     Q        S S  S  S S  S  S S  S  S S  S  S S S  S
------------------------|--------------------------------------------|
------------------------|--------------------------------------------|
------------------------|--------------------------------------------|
------------------------|--5-------4-------5-------4-------4-5-------|
------------------------|----3--3----3--3----3--3----3--3------3--3--|
-----------------12\----|--------------------------------------------|


    PM PM   PM PM   PM PM       PM PM  PMPM PM  PM
                                |---3--| |---3--|
  S S  S  S S  S  S S  S  S  E  S  S   S S  S   S
--------------------------------------------------|
--------------------------------------------------|
--------------------------------------------------|
--5-------4-------5-------4~-L--------------------|
----3--3----3--3----3--3-----------------7--9--10-|
--------------------------------7--8--10----------|


     PM PM   PM PM    PM PM   PM PM     PM PM
   S S  S  S S  S   S S  S  S S  S  S S S  S
----------------------------------------------|
----------------------------------------------|
----------------------------------------------|
--10-------9-------10-------9-------7-9-------|
-----7--7----7--7-----7--7----7--7------7--7--|
----------------------------------------------|


     PM PM   PM PM    PM PM      PM PM PM PM PM PM
                                 |--3--|  |--3--|
   S S  S  S S  S   S S  S  E.   S  S  S  S  S  S
---------------------------------------------------|
---------------------------------------------------|
---------------------------------------------------|
--10-------9-------10-------9~---------------------|
-----7--7----7--7-----7--7----------------3--5--7--|
---------------------------------3--5--7-----------|


    PM PM   PM PM   PM PM   PM PM     PM PM
  S S  S  S S  S  S S  S  S S  S  S S S  S
--------------------------------------------|
--------------------------------------------|
--------------------------------------------|
--5-------4-------5-------4-------4-5-------|
----3--3----3--3----3--3----3--3------3--3--|
--------------------------------------------|


    PM PM   PM PM   PM PM       PM PM  PMPM PM  PM
                                |---3--| |---3--|
  S S  S  S S  S  S S  S  S  E  S  S   S S  S   S
--------------------------------------------------|
--------------------------------------------------|
--------------------------------------------------|
--5-------4-------5-------4~-L--------------------|
----3--3----3--3----3--3-----------------7--9--10-|
--------------------------------7--8--10----------|


     PM PM   PM PM    PM PM   PM PM     PM PM
   S S  S  S S  S   S S  S  S S  S  S S S  S
----------------------------------------------|
----------------------------------------------|
----------------------------------------------|
--10-------9-------10-------9-------7-9-------|
-----7--7----7--7-----7--7----7--7------7--7--|
----------------------------------------------|


     PM PM   PM PM    PM PM       PM PM PM PM PM PM
                                  |--3--|  |--3--|
   S S  S  S S  S   S S  S  E.    S  S  S  S  S  S
---------------------------------------------------|
---------------------------------------------------|
---------------------------------------------------|
--10-------9-------10-------9~------------10-12-14-|
-----7--7----7--7-----7--7-------10-12-14----------|
---------------------------------------------------|


      PM PM    PM PM    PM PM    PM PM       PM PM
   S  S  S  S  S  S  S  S  S  S  S  S  S  S  S  S
--------------------------------------------------|
--------------------------------------------------|
--12-------11-------12-------11-------11-12-------|
-----10-10----10-10----10-10----10-10-------10-10-|
--------------------------------------------------|
--------------------------------------------------|


      PM PM    PM PM    PM PM       PM PM PM PM PM PM
                                    |--3--|  |--3--|
   S  S  S  S  S  S  S  S  S  E.    S  S  S  S  S  S
-----------------------------------------------------|
-----------------------------------------------------|
--12-------11-------12-------11~---------------------|
-----10-10----10-10----10-10----------------14-16-17-|
-----------------------------------14-15-17----------|
-----------------------------------------------------|


      PM PM    PM PM    PM PM    PM PM       PM PM
   S  S  S  S  S  S  S  S  S  S  S  S  S  S  S  S
--------------------------------------------------|
--------------------------------------------------|
--17-------16-------17-------16-------14-16-------|
-----14-14----14-14----14-14----14-14-------14-14-|
--------------------------------------------------|
--------------------------------------------------|


      PM PM    PM PM    PM PM
                                    |--3--|  |--3--|
   S  S  S  S  S  S  S  S  S  E.    S  S  S  S  S  S
-----------------------------------14-12-10----------|
-----------------------------------------------------|
--17-------16-------17-------16~------------14-12-11-|
-----14-14----14-14----14-14-------------------------|
-----------------------------------------------------|
-----------------------------------------------------|


     PM PM    PM PM    PM PM
                                    |--3--|  |--3--|
   S S  S   S S  S   S S  S   E.    S  S  S  S  S  S
-----------------------------------17-14-11----------|
-----------------------------------------------------|
--12-------11-------12-------11~------------17-14-11-|
-----9--9-----9--9-----9--9--------------------------|
-----------------------------------------------------|
-----------------------------------------------------|


      PM PM    PM PM    PM PM
                                    |--3--|  |--3--|
   S  S  S  S  S  S  S  S  S  E.    S  S  S  S  S  S
--------------------------------------------15-17-19-|
-----------------------------------15-17-19----------|
--17-------16-------17-------16~---------------------|
-----13-13----13-13----13-13-------------------------|
-----------------------------------------------------|
-----------------------------------------------------|


   |--3--|  |--3--|  |--3--|  |--3--|  |--3--|  |--3--|  |--3--|  |--3--|
   S  S  S  S  S  S  S  S  S  S  S  S  S  S  S  S  S  S  S  S  S  S  S  S
--20-19-17----------------------------------------------------------------|
-----------20-19-17-20-19-17----------------------------------------------|
-----------------------------19-17-16-19-17-16----------------------------|
-----------------------------------------------19-17-16-19-17-16----------|
-----------------------------------------------------------------19-17-15-|
--------------------------------------------------------------------------|


   |--3--|  |--3--|  |--3--|  |--3--|
   S  S  S  S  S  S  S  S  S  S  S  S  Q      Q
----------------------------------------------------|
----------------------------------------------------|
----------------------------------------------------|
--------------------------------------14~-----------|
--19-17-15-------------------14-15-17---------------|
-----------19-17-15-14-15-17-----------------12\----|


    PM PM   PM PM   PM PM   PM PM     PM PM
  S S  S  S S  S  S S  S  S S  S  S S S  S
--------------------------------------------|
--------------------------------------------|
--------------------------------------------|
--5-------4-------5-------4-------4-5-------|
----3--3----3--3----3--3----3--3------3--3--|
--------------------------------------------|


    PM PM   PM PM   PM PM       PM PM  PMPM PM  PM
                                |---3--| |---3--|
  S S  S  S S  S  S S  S  S  E  S  S   S S  S   S
--------------------------------------------------|
--------------------------------------------------|
--------------------------------------------------|
--5-------4-------5-------4~-L--------------------|
----3--3----3--3----3--3-----------------7--9--10-|
--------------------------------7--8--10----------|


     PM PM   PM PM    PM PM   PM PM     PM PM
   S S  S  S S  S   S S  S  S S  S  S S S  S
----------------------------------------------|
----------------------------------------------|
----------------------------------------------|
--10-------9-------10-------9-------7-9-------|
-----7--7----7--7-----7--7----7--7------7--7--|
----------------------------------------------|


     PM PM   PM PM    PM PM      PM PM PM PM PM PM
                                 |--3--|  |--3--|
   S S  S  S S  S   S S  S  E.   S  S  S  S  S  S
---------------------------------------------------|
---------------------------------------------------|
---------------------------------------------------|
--10-------9-------10-------9~---------------------|
-----7--7----7--7-----7--7----------------3--5--7--|
---------------------------------3--5--7-----------|


    PM PM   PM PM   PM PM   PM PM     PM PM
  S S  S  S S  S  S S  S  S S  S  S S S  S
--------------------------------------------|
--------------------------------------------|
--------------------------------------------|
--5-------4-------5-------4-------4-5-------|
----3--3----3--3----3--3----3--3------3--3--|
--------------------------------------------|


    PM PM   PM PM   PM PM       PM PM  PMPM PM  PM
                                |---3--| |---3--|
  S S  S  S S  S  S S  S  S  E  S  S   S S  S   S
--------------------------------------------------|
--------------------------------------------------|
--------------------------------------------------|
--5-------4-------5-------4~-L--------------------|
----3--3----3--3----3--3-----------------7--9--10-|
--------------------------------7--8--10----------|


     PM PM   PM PM    PM PM   PM PM     PM PM
   S S  S  S S  S   S S  S  S S  S  S S S  S
----------------------------------------------|
----------------------------------------------|
----------------------------------------------|
--10-------9-------10-------9-------7-9-------|
-----7--7----7--7-----7--7----7--7------7--7--|
----------------------------------------------|


     PM PM   PM PM    PM PM       PM PM PM PM PM PM
                                  |--3--|  |--3--|
   S S  S  S S  S   S S  S  E.    S  S  S  S  S  S
---------------------------------------------------|
---------------------------------------------------|
---------------------------------------------------|
--10-------9-------10-------9~------------10-12-14-|
-----7--7----7--7-----7--7-------10-12-14----------|
---------------------------------------------------|


      PM PM    PM PM    PM PM    PM PM       PM PM
   S  S  S  S  S  S  S  S  S  S  S  S  S  S  S  S
--------------------------------------------------|
--------------------------------------------------|
--12-------11-------12-------11-------11-12-------|
-----10-10----10-10----10-10----10-10-------10-10-|
--------------------------------------------------|
--------------------------------------------------|


      PM PM    PM PM    PM PM       PM PM PM PM PM PM
                                    |--3--|  |--3--|
   S  S  S  S  S  S  S  S  S  E.    S  S  S  S  S  S
-----------------------------------------------------|
-----------------------------------------------------|
--12-------11-------12-------11~---------------------|
-----10-10----10-10----10-10----------------14-16-17-|
-----------------------------------14-15-17----------|
-----------------------------------------------------|


      PM PM    PM PM    PM PM    PM PM       PM PM
   S  S  S  S  S  S  S  S  S  S  S  S  S  S  S  S
--------------------------------------------------|
--------------------------------------------------|
--17-------16-------17-------16-------14-16-------|
-----14-14----14-14----14-14----14-14-------14-14-|
--------------------------------------------------|
--------------------------------------------------|


      PM PM    PM PM    PM PM
                                    |--3--|  |--3--|
   S  S  S  S  S  S  S  S  S  E.    S  S  S  S  S  S
-----------------------------------14-12-10----------|
-----------------------------------------------------|
--17-------16-------17-------16~------------14-12-11-|
-----14-14----14-14----14-14-------------------------|
-----------------------------------------------------|
-----------------------------------------------------|


     PM PM    PM PM    PM PM
                                    |--3--|  |--3--|
   S S  S   S S  S   S S  S   E.    S  S  S  S  S  S
-----------------------------------17-14-11----------|
-----------------------------------------------------|
--12-------11-------12-------11~------------17-14-11-|
-----9--9-----9--9-----9--9--------------------------|
-----------------------------------------------------|
-----------------------------------------------------|


      PM PM    PM PM    PM PM
                                    |--3--|  |--3--|
   S  S  S  S  S  S  S  S  S  E.    S  S  S  S  S  S
--------------------------------------------15-17-19-|
-----------------------------------15-17-19----------|
--17-------16-------17-------16~---------------------|
-----13-13----13-13----13-13-------------------------|
-----------------------------------------------------|
-----------------------------------------------------|


   |--3--|  |--3--|  |--3--|  |--3--|  |--3--|  |--3--|  |--3--|  |--3--|
   S  S  S  S  S  S  S  S  S  S  S  S  S  S  S  S  S  S  S  S  S  S  S  S
--20-19-17----------------------------------------------------------------|
-----------20-19-17-20-19-17----------------------------------------------|
-----------------------------19-17-16-19-17-16----------------------------|
-----------------------------------------------19-17-16-19-17-16----------|
-----------------------------------------------------------------19-17-15-|
--------------------------------------------------------------------------|


   |--3--|  |--3--|  |--3--|  |--3--|
   S  S  S  S  S  S  S  S  S  S  S  S  Q      Q
----------------------------------------------------|
----------------------------------------------------|
----------------------------------------------------|
--------------------------------------14~-----------|
--19-17-15-------------------14-15-17---------------|
-----------19-17-15-14-15-17-----------------12\----|


   PM PM PM PM PM PM PM PM PM PM PM PM PM PM PM PM
   S  S  S  S  S  S  S  S  S  S  S  S  S  S  S  S
--------------------------------------------------|
--------------------------------------------------|
-----------------------------12-16-14-12----12-14-|
--------------------12-16-14-------------16-------|
-----------12-15-14-------------------------------|
--12-15-14----------------------------------------|


   PM PM    PM PM PM PM PM PM PM
               |--3--|  |--3--|                 |--3--|
   S  S  S  S  S  S  S  S  S  S  S  S S  S  E   S  S  S
--------------------------------------------------------|
-----------------------------------17---17--L--15-17-19-|
--12----------12----------------12----------------------|
-----16-12-16----16-14-12-14-16-------------------------|
--------------------------------------------------------|
--------------------------------------------------------|


                                       |--3--|
   S  S S  S  E   S  S  S  S S  S  E   S  S  S
--15-20---19--L--15----------------------------|
--------------------17----20---20--L--15-17-19-|
-----------------------16----------------------|
-----------------------------------------------|
-----------------------------------------------|
-----------------------------------------------|


   |--3--|   |--3--|  |--3--|  |--3--|
   S  S  S   S  S  S  S  S  S  S  S  S  E   S  S  E   E
--15-17-19S-22-20-19-------------------------------------|
---------------------22-20-19----------------------------|
------------------------------21-19-17-------------------|
---------------------------------------21---L-20--L--19--|
---------------------------------------------------------|
---------------------------------------------------------|


   S  S  S  S  E   E   E   S  S  E   E      S  S  S  S  E   E
----------------------------------------|----------------------|
----------------------------------------|----------------------|
----------------------------------------|----------------------|
--18-18-18-17--L--16--15---L-14--L--13--|--12-12-12-11--L--10--|
----------------------------------------|----------------------|
----------------------------------------|----------------------|

SOLO
   H         Q     E    E
|--------------------------|
|--------------------------|
|--9~--------L----12b------|
|----------------------14--|
|--------------------------|
|--------------------------|


   E   S  S  S S  S   S  Q      E   S  S
-----------------------------------------|
-----------------------------------------|
--14b----14--L---12h-14------------------|
------------------------14~-----L--14-14-|
-----------------------------------------|
-----------------------------------------|


                      |---3---|  |---3--|   |--3--|
   E    E   Q    E    S   S   S  S  S   S   S  S  S
--------------------------------10-------------------|
-----------------------------------------------------|
-----------------7s--11h-12h-14----14p-12p-11----11h-|
--14s--16---L---------------------------------12-----|
-----------------------------------------------------|
-----------------------------------------------------|


   |------5-----|                              |---3---|   |-----3----|   3   |-
   S   S  S  S  S  T   T   T  T  T   T   T  T  S   S   S   S   S   T  T   S.  T
---------10--------------------------------10-14p-10h-12h-14p-12p-10-14s-15p-14--|p
---------------------------------------------------------------------------------|
--12h-14----14-12-14p-12p-11----11h-12h-14---------------------------------------|
-----------------------------12--------------------------------------------------|
---------------------------------------------------------------------------------|
---------------------------------------------------------------------------------|


   |---3---|   |--3--|  |---3---|   |---3---|   |---3---|
   S   S   S   S  S  S  E   E   E   E   E   E   E   E   E
-------------------------------12--14--15--14--15------14--|
--13h-15p-13p-12----12-13--15----------------------17------|
-----------------14----------------------------------------|
-----------------------------------------------------------|
-----------------------------------------------------------|
-----------------------------------------------------------|


                        |---3---|  |--|
   S  E.    Q     Q     S   S   S  S  E
--15-17b----L-----L----15h-17p-15----15--|
----------------------------------17-----|
-----------------------------------------|
-----------------------------------------|
-----------------------------------------|
-----------------------------------------|


   |---3---|                   |---3---|
   E   E   E    Q     Q     S  S   S   S   S
--17--19--17b---L-----L----17-15h-17p-15s-12-|
---------------------------------------------|
---------------------------------------------|
---------------------------------------------|
---------------------------------------------|
---------------------------------------------|


      |---3---|     |----3---|   |----3---|    |---3---|
   S  S   S   S  S  E   E    E   E    E   E    E   E   E
--15-12h-15p-12----12-------12----------------------------|
----------------15-----15b------15b--12-------12----------|
-----------------------------------------14b------15--14--|
----------------------------------------------------------|
----------------------------------------------------------|
----------------------------------------------------------|


   |----3---|    |---3---|   |----3---|   |----3---|
   E    E   E    E   E   E   E    E   E   E    E   E
------------------------------------------------------|
------------------------------------------------------|
--12b------14b---L--12------12s--11-------------------|
-------14---------------14-----------12---------------|
-----------------------------------------12p--10s--9--|
------------------------------------------------------|


   PM  PM PM  PM  PM PM          W
   |---3--|   |---3--|   3    |--|
   E   E  E   E   E  E   E.   S  E   Q
------------------------------------------|
------------------------------------------|
---------------------9--11b-----11---L----|
----------9--10--12-----------------------|
--10--12----------------------------------|
------------------------------------------|


          |--3--|  |-3-|  |--3--| |--3-|  |--3-|  |--3--|
   E.  S  S  S  S  S S S  S   S S S S  S  S  S S  S S   S
-------0s-7---------------------7-8-7h-8p-7----7-10-8h-10h-|
------------10p-8p-7---7h-8h-10-------------10-------------|
---L-----------------9-------------------------------------|
-----------------------------------------------------------|
-----------------------------------------------------------|
-----------------------------------------------------------|


  |--3-|   |--3--|  |--3-|  |--3--|  |-3-|  |--3--|  |--3--|  |--3-|
  S  S S   S  S  S  S S  S  S  S  S  S S S  S   S S  S  S  S  S  S S
--8-10-8h-10p-8p-7----7h-8p-7---------------------7------------------|
-------------------10---------10p-8p-7---7h-8h-10---10p-8-10p-8p-7---|
---------------------------------------9---------------------------9-|
---------------------------------------------------------------------|
---------------------------------------------------------------------|
---------------------------------------------------------------------|


  |--3-|     |--3--|  |--3-| |---3--|  |--3-| |--3--| |-3-|
  S S  S S S S  S  S  S S  S S   S  S  S  S S S  S  S S S S
---------7-8-7h-8p-7----7-10-8h-10p-8p-7s-5-7-5h-7p-5---5---|
--7-8-10-------------10-------------------------------8---8-|
------------------------------------------------------------|
------------------------------------------------------------|
------------------------------------------------------------|
------------------------------------------------------------|


  |--3-|  |--3-| |-3-| |--3-|  |----7---| |----7----|  7  7 7 7
  S S  S  S S  S S S S S S  S  S  S S S S S S  S  S S  S  S S S
----------------------------------------------------------------|
--7-8p-7p-5-7p-5---5-7-8-7h-8p-7p-5---5-------------------------|
-----------------7------------------7---7-5-7p-5s-4-5p-4s-2-----|
------------------------------------------------------------5-3-|
----------------------------------------------------------------|
----------------------------------------------------------------|


  PM PM PM PM PM PM    PM PM PM PM PM    PM PM PM          W
  |--3--|  |--3--|  |--3--|  |--3--|     |--3--|  |--3--|
  E  E  E  E  E  E  E  E  E  E  E  E     E  E  E  E  E  E  H
--------------------------------------|------------------------------|
--------------------------------------|------------------------------|
--------------------------------------|------------------------------|
--2-----------------------------------|--------2--4--2--4--5~--------|
-----5--3--2--3-----2-----------------|-----2------------------------|
-----------------5-----5--3--2--3--2--|--3---------------------------|


     |--3-| |--3-|  |--3--| |--3--|   |--3--|  |--3--|   |--3--|
  E  S S  S S S  S  S  S  S S  S  S   S  S  S  S  S  S   S  S  S
-----------------------------------------------------------------|
-----------------------------------------------------------------|
----------------------------------------------11-12-14S-12-14-16-|
----------------------------9-10-12S-10-12-14--------------------|
------------7-9-10S-9-10-12--------------------------------------|
-----7-8-10------------------------------------------------------|


   |--3--|   |--3--|  |--3--|  |--3--|   |--3--|  |--3--|  |--3--|  |--3--|
   S  S  S   S  S  S  S  S  S  S  S  S   S  S  S  S  S  S  S  S  S  S  S  S
---------------------15-------15-17-19s-20-19-17----------22-20-19----------|
--13-15-17S-15-17-19----19-17--------------------20-19-17----------22-20-19-|
----------------------------------------------------------------------------|
----------------------------------------------------------------------------|
----------------------------------------------------------------------------|
----------------------------------------------------------------------------|


                                                             W
                    |---3---|      |----3---|   |----3---|
   H          Q     E   E   E      E    E   E   E   E    E   H
--22b---------L----12----------|--------------------------------------|
-----------------------15--12--|-------12-------------------12--------|
-------------------------------|--14b------15--14--12b--14--12--------|
-------------------------------|--------------------------------------|
-------------------------------|--------------------------------------|
-------------------------------|--------------------------------------|


   S   S  S   S  S   S  S   S  E    E    S   S   S  S
------12------------12--------15b--15b--12h-15p-12----|
--15b----15b-12-15b----15b-12----------------------15-|
------------------------------------------------------|
------------------------------------------------------|
------------------------------------------------------|
------------------------------------------------------|


   S  S   S  S   S  S  S   S  S  S  E     E    S  S
---------12------------------------------------------|
--12-15b----15b-15-12-----12-------------------------|
----------------------14b----15-14-12br-------12-14b-|
-----------------------------------------14~---------|
-----------------------------------------------------|
-----------------------------------------------------|


                     |---3---|
  S  S   S  S  S  S  S    S  S  S  S  S  S    S  S  E
---------------------------------------------------------|
---------------------------------------------------------|
----14b-14b---14b---14br--L-12-------12-11br--L-12-11br--|
-------------------------------14-12---------------------|
---------------------------------------------------------|
---------------------------------------------------------|


   S  E     S  E     S  S    S  S  E      Q
-----------------------------------------------|
-----------------------------------------------|
--12-11br--12-11br--12-11br--L-12-11br~---L----|
-----------------------------------------------|
-----------------------------------------------|
-----------------------------------------------|


     |--3--| |--3--| |--3--|      |--3--| |--3--| |--3--|
  E  S  S  S S  S  S S  S  S S  S S  S  S S  S  S S  S  S
----------------------------------------------------------|
----------------------------------------------------------|
-------------9---------------9----9---------------9-11-12-|
-----9-10-12---12-10-9-10-12---12---12-10-9-10-12---------|
----------------------------------------------------------|
----------------------------------------------------------|


   Q      Q      E    S  S  S  S  E
-------------------------------------|
-------------------------------------|
--11S----12~----14b--12--L----12--L--|
---------------------------14--------|
-------------------------------------|
-------------------------------------|


             |---3---|                        |---3---|
   S  S  E   E   E   E   S  T   T   T   T  S  E   E   E      W
----------------12--14--15-14h-15p-14p-12----12----------|---------------------|
------------12----------------------------15-----15--12--|--15b----------------|
-----11--L-----------------------------------------------|---------------------|
--14-----------------------------------------------------|---------------------|
---------------------------------------------------------|---------------------|
---------------------------------------------------------|---------------------|


         |---3--|        |---3--|        |---3--|        |---3--|
   S  S  S   S  S  S  S  S   S  S  S  S  S   S  S  S  S  S   S  S
--19-19-17p-15----19-19-17p-15----19-19-17p-15----19-19-17p-15----|
---------------19--------------19--------------19--------------19-|
------------------------------------------------------------------|
------------------------------------------------------------------|
------------------------------------------------------------------|
------------------------------------------------------------------|


         |---3--|        |---3--|        |---3--|        |---3--|
   S  S  S   S  S  S  S  S   S  S  S  S  S   S  S  S  S  S   S  S
--19-19-17p-15----19-19-17p-15----19-19-17p-15----19-19-17p-15----|
---------------19--------------19--------------19--------------19-|
------------------------------------------------------------------|
------------------------------------------------------------------|
------------------------------------------------------------------|
------------------------------------------------------------------|


         |---3--|        |---3--|  |--3--|  |--3--|  |---3---|  |--3--|
   S  S  S   S  S  S  S  S   S  S  S  S  S  S  S  S  S   S   S  S  S  S
--19-19-17p-15----19-19-17p-15----15----------------15h-17p-15----15-19-|
---------------19--------------19----19-17-15-17-19------------19-------|
------------------------------------------------------------------------|
------------------------------------------------------------------------|
------------------------------------------------------------------------|
------------------------------------------------------------------------|


                                W
   |---3---|
   S   S   S   S  S  S S  S  S  Q     E    E
--17h-19p-17p-15----15---15-17-17b-------------|
-----------------19----------------------------|
-----------------------------------------------|
-----------------------------------------------|
--------------------------------------0s--14\--|
--------------------------------------0s--12\--|


   S  S  S  S  S  S  S  S  S  S  S  S  S  S  S  S
--15-------15-17-19-15-17----15-17-19-15-17----15-|
-----17-19----------------19----------------19----|
--------------------------------------------------|
--------------------------------------------------|
--------------------------------------------------|
--------------------------------------------------|


   S  S  S  S  S  S  S  S  S  S  S  S  S  S  S  S
--17-19-15-17----15-17-19-14-15----14-15-17-14-15-|
--------------19----------------17----------------|
--------------------------------------------------|
--------------------------------------------------|
--------------------------------------------------|
--------------------------------------------------|


   |--3--|  |--3--|  |--3--|  |--3--|  |--3--|  |--3--|  |--3--|  |--3--|
   S  S  S  S  S  S  S  S  S  S  S  S  S  S  S  S  S  S  S  S  S  S  S  S
-----14-15-17-14-15----14-15-17-14-15----14-15-17-14-15----14-15-17-14-15-|
--17----------------17----------------17----------------17----------------|
--------------------------------------------------------------------------|
--------------------------------------------------------------------------|
--------------------------------------------------------------------------|
--------------------------------------------------------------------------|


   |--3--|  |---3---|  |--3--|  |---3---|         |---3---|   |---3--|  |--3--|
   S  S  S  S   S   S  S  S  S  S   S   S   S  S  S   S   S   S  S   S  S  S  S
-----14-15-14h-15p-14----14-17-15h-17p-15p-14-17-15h-17p-15p-14--------12-------|
--17------------------17----------------------------------------17s-15----15-13-|
--------------------------------------------------------------------------------|
--------------------------------------------------------------------------------|
--------------------------------------------------------------------------------|
--------------------------------------------------------------------------------|


   |---3---|  |---3--|   |--3--|  |---3--|   |--3--|   |---3---|   |---3---|   |
   S   S   S  S  S   S   S  S  S  S  S   S   S  S  S   S   S   S   S   S   S   S
---------------------------12----------------------------------------------------|
--15p-13p-12----12h-13h-15----15-13-15p-13p-12----12h-13h-15s-16p-15p-13h-15h-16-|
-------------14--------------------------------14--------------------------------|
---------------------------------------------------------------------------------|
---------------------------------------------------------------------------------|
---------------------------------------------------------------------------------|


                                                                       W
   |---3---|   |--3--|   |-------7-------|  7  7                       |---3--|
   S   S   S   S  S  S   S   S   S   S   S  S  S   T   T   T  T  E     S   S  S
-----------------12-16p-12h-15h-16p-15p-12--------------------------------------|
--15p-13h-15h-16---------------------------15-14h-15p-14p-12--------------------|
-------------------------------------------------------------14-12br------------|
----------------------------------------------------------------------14p-12----|
-----------------------------------------------------------------------------14-|
--------------------------------------------------------------------------------|


   |---3---|                |----3---|
   S    S  S  E   E    E    S     S  S  S   S  S   S  S  S
------------------------------------------------------------|
------------------------------------------------------------|
--12br--L--L-----14b--14b--14pbr--L-12--------12s-11----11h-|
-------------14------------------------14p-12--------12-----|
------------------------------------------------------------|
------------------------------------------------------------|


                   |---3---|
   S   S  S  S  S  T   T   T   S  S  S  S  S  S  S  S  S   S
---------10-12-14-12h-14p-12p-10----10-----------------------|
---------------------------------14--------------------------|
--12h-14-------------------------------15-14-12----12-14p-12-|
------------------------------------------------14-----------|
-------------------------------------------------------------|
-------------------------------------------------------------|


   W
---------------------|
---------------------|
---------------------|
--14~----------------|
---------------------|
---------------------|


   |---3---|  |--3--|   |---3---|   |---3--|   |---3---|  |---3--|   |---3---|
   S   S   S  S  S  S   S   S   S   S  S   S   S   S   S  S  S   S   S   S   S
--------------------------------------------------------------------------------|
--12h-13p-12----12--------------------12h-13h-14p-13p-12----12h-14h-15s-16p-15p-|
-------------15----15p-14p-12h-14h-15--------------------15---------------------|
--------------------------------------------------------------------------------|
--------------------------------------------------------------------------------|
--------------------------------------------------------------------------------|


   |---3--|   |--3--|   |---3--|  |---3---|   |---3---|   |---3--|   |---3--|  |
   S  S   S   S  S  S   S   S  S  S   S   S   S   S   S   S   S  S   S   S  S  S
----------------------------------------------------------------12h-14p-12----12-|
--12--------------------------12-15p-12h-14h-15p-14p-12h-14h-15------------15----|
-----15p-14p-12----12h-14h-15----------------------------------------------------|
----------------14---------------------------------------------------------------|
---------------------------------------------------------------------------------|
---------------------------------------------------------------------------------|


   |---3---|  |---3--|         |---3---|   |----3---|
   S   S   S  S  S   S  Q      E   E   E   E    E   E
--15p-14p-12----12h-14-15b----15--14--12-------12-------|
-------------15---------------------------15b------15b--|
--------------------------------------------------------|
--------------------------------------------------------|
--------------------------------------------------------|
--------------------------------------------------------|


   |----3---|   |---3---|       |---3---|     |----3---|
   E   E    E   E   E   E    S  S   S   S  S  E    E   E
----------------------------------------------------------|
--12-------12---------------------------------------------|
------14b------15--14--12b--14-12h-14p-12----12b----------|
------------------------------------------14------14--12--|
----------------------------------------------------------|
----------------------------------------------------------|


   PM      PM  PM  PM  PM       PM  PM
   |---3---|   |---3---|   |----3---|   |---3---|
   E   E   E   E   E   E   E    E   E   E   E   E
---------------------------------------------------|
---------------------------------------------------|
---------------------------------------------------|
------12-------------------------------------------|
--14------14--13--12-------------------10--12--10--|
----------------------15--12S--10--12--------------|


                      |---3---|
   Q      E   E   E   S   S   S  E   E      Q     Q     Q    Q
----------------------------------------|---------------0---------|
----------------------------------------|---------5/---------0----|
----------------------------------------|-------------------------|
----------------------------------------|-------------------------|
--12b-----L--10--12--10h-12p-10---------|-------------------------|
--------------------------------12--10--|--12\--------------------|


  W
--------------------||
--------------------||
--9~----------------||
--------------------||
--------------------||
--------------------||


Duration Legend
---------------
W - whole
H - half
Q - quarter
E - 8th
S - 16th
T - 32nd
X - 64th
. - note dotted
|-n-|  - n-tuplets


Tablature Legend
----------------
L - tied note
x - dead note
g - grace note
(n) - ghost note
> - accentuded note
NH - natural harmonic
AH - artificial harmonic
TH - tapped harmonic
SH - semi harmonic
PH - pitch harmonic
h - hammer on
p - pull off
b - bend
br - bendRelease
pb - preBend
pbr - preBendRelease
brb - bendReleaseBend
\n/ - tremolo bar dip
\n - tremolo bar dive
-/n - tremolo bar Release up
/n\ - tremolo bar inverted dip
/n - tremolo bar return
-\n - tremolo bar Release down
S - shift slide
s - legato slide
/ -  slide into from below or out of upwards
\ -  slide into from above or out of downwards
~ - vibrato
W - wide vibrato
tr - trill
TP - tremolo picking
T - tapping
S - slap
P - pop
< - fade in
^ - brush up
v - brush down
Tap to rate this tab
 
# A B C D E F G H I J K L M N O P Q R S T U V W X Y Z