Guitaretab - guitar tabs
Song name
# A B C D E F G H I J K L M N O P Q R S T U V W X Y Z

Paul Gilbert - Radiator tab

Tablature

Artist: Paul gilbert
Music: Radiator
Album: Get Out Of My Yard


			Radiator


E||-------12---------------|------------------------|-----------------------|
B||-------12---------------|------------------------|-----------------------|
G||------------------------|--9---------------11----|-------------9--h-11-h-|
D||------------------------|--9---------------11----|-------------9--h-11-h-|
A||-------------9----11----|-------9----11----------|--9----11--------------|
E||--9---------------------|------------------------|-----------------------|


-----------------------|-------0----0---------|-------12---------------|
-----------------------|-------0----0---------|-------12---------------|
--9--------------------|-------6----6---------|------------------------|
--9--------------------|-------7----7---------|------------------------|
-------11----9----7----|-------7----7---------|-------------9----11----|
-----------------------|--5----5----5---------|--9---------------------|


------------------------|------------------------|-----------------------|
------------------------|------------------------|-----------------------|
--9---------------11----|-------------9--h-11-h--|--9--------------------|
--9---------------11----|-------------9--h-11-h--|--9--------------------|
-------9----11----------|--9----11---------------|-------11----9----7----|
------------------------|------------------------|-----------------------|


-------0--------------|--4---------4---/14----|--16----14----12----------|
-------0--------------|--2---------2----------|--------------------14----|
-------6---------4----|--2---------2----------|--------------------------|
-------7---------4----|--2---------2----------|--------------------------|
-------7--------------|--2---------2----------|--------------------------|
--5----5----4---------|--2----2----2----------|--------------------------|


--------------------------|--------0----0---------|----------------------|
--------------------------|--------0---------0----|----------------------|
--14----------------------|--------8--------------|--8-------------------|
--------11----13----14----|--------9--------------|-------9--------------|
--------------------------|--12----9--------------|----------------------|
--------------------------|--------7--------------|------------7\---2----|


--4---/14----16----14----|--12---------------------|------------------5----|
--2----------------------|--------14---------------|------------------5----|
--2----------------------|--------------14---------|------------------5----|
--2----------------------|--------------------7----|--9----10---------5----|
--2----------------------|-------------------------|-------------5----5----|
--2----------------------|-------------------------|-----------------------|


-------5--------------|------------4----2--h-|--4-h--2----0---------|
------------5---------|------------2---------|-----------------2----|
-----------------5----|------------2---------|----------------------|
----------------------|------------2---------|----------------------|
--5-------------------|--5\--------2---------|----------------------|
----------------------|-------2----2---------|----------------------|


------------------------|-------0---------------|-----------------------|
------------------------|-------0---------------|-----------------------|
--2---------------------|-------8----8-----9----|--10-------------------|
------------------------|-------9----9----10----|--11-------------------|
------------------------|-------9----9----10----|--11-------------------|
-------9----11----12----|--5----7----7-----8----|---9\---0----7----8----|


-----------------------|-----------------|-----------------------|
-----------------------|-----------------|-----------------------|
-----------------------|-----------------|-----------------------|
-----------------------|--9--------------|-----------------------|
-------7----9/---11----|-----------------|-------7----9/---11----|
--9--------------------|-------7----8----|--9--------------------|
[ Tab from: http://www.guitaretab.com/p/paul-gilbert/102574.html ]
-----------------|-----------------------|----------------------|
-----------------|-----------------------|----------------------|
-----------------|-----------------------|----------------------|
--9--------------|-----------------------|--9-------------------|
-----------------|-------7----9/---11----|----------------------|
-------7----8----|--9--------------------|-------7----8----9----|


----------------------|--------------0----0----|---0---------0-----0----|
----------------------|--19b---17----7----9----|--10---------9----10----|
----------------------|------------------------|------------------------|
----------------------|------------------------|------------------------|
----------------------|------------------------|------------------------|
--0----2----3----4----|------------------------|--------5---------------|

---0----------0-----0----|---0---------14----16----|--14----12--------------|
--12---------14----12----|--11---------------------|--------------16----14--|
-------------------------|-------------------------|------------------------|
-------------------------|-------------------------|------------------------|
-------------------------|-------------------------|------------------------|
--------7----------------|--------2----------------|------------------------|


--------------------------|--------------------------|
--12----11----10----12----|--10----12----10----12----|
--------------------------|--------------------------|
--------------------------|--------------------------|
--------------------------|--------------------------|
--------------------------|--------------------------|

--------------------------|--------------------------|
--10----12----12----14----|--12----14----12----14----|
--------------------------|--------------------------|
--------------------------|--------------------------|
--------------------------|--------------------------|
--------------------------|--------------------------|


--------------------------|--------------------------|----------------------|
--12----14----14----16----|--14----16----14----16----|--16b---14----16------|
--------------------------|--------------------------|----------------------|
--------------------------|--------------------------|----------------------|
--------------------------|--------------------------|----------------------|
--------------------------|--------------------------|--------------------7-|


----------------------|-----------------------|------------------------|
----------------------|-----------------------|------------------------|
----------------------|-----------------------|------------------------|
----------------------|--------9--------------|--9/---11----9----------|
------------7/---9----|--11---------9----7----|------------------11----|
--8----9--------------|-----------------------|------------------------|


----------------------|----------------------|-------------|
----------------------|----------------------|-------------|
----------------------|-----------------9----|-------------|
----------------------|-----------------9----|--9----11----|
--9----7----9----7----|-----------------7----|--9----11----|
----------------------|--9----7----0---------|--7-----9----|


  	4x				4x
----------------------|-----|----------------------|-------||
----------------------|--7--|----------------------|-------||
--9-h--7--------------|--6--|--9-h--7--------------|-------||
------------9-h--7----|--4--|------------9-h--7----|-------||
----------------------|-----|----------------------|-------||
----------------------|-----|----------------------|--0----||

Author: Leonardo Ara˙jo Bezerra
Email: leopaulgilbert@hotmail.com

Comentary: I know this tab it's not 100% correctly, but i guess that you enjoy.
If you have time and wants to thanks me, join in this site:
http://www.AWSurveys.com/HomeMain.cfm?RefID=leopaulgilbert
This site pays U$27 for your register and give your opinon of some sites, and pays 
for each friend that you refer.
The payments are in check or pay pal. Thanks, the next tab that I will to place is: 
twelve, I love this song!

Good bye!


Tablature Legend
------------

h - hammer on
p - pull off
b - bend
/ -  slide
\ -  slide
~ - vibrato
Related for Radiator tab