Song name
# A B C D E F G H I J K L M N O P Q R S T U V W X Y Z

Paul Kelly - Deeper Water tab

this is just the first two riffs i was sick of just chords for this song

|-----------3---------------------3-----------|
|----------------3----------------0--3--------|
|-4h-5--------------0--------------------0----|
|-5t--------------------------0---------------|
|---------------------------------------------|
|--------------------------2------------------|

then just go

C -0- D -2- G -3- in electric
  -1-   -3-   -2-
  -0-   -2-   -0-
  -2-   -0-   -0-
  -3-   ---   -0-
  -0-   ---   -3-
Tap to rate this tab
# A B C D E F G H I J K L M N O P Q R S T U V W X Y Z