Guitaretab - guitar tabs
Song name
# A B C D E F G H I J K L M N O P Q R S T U V W X Y Z

Paul Kelly - Reckless tab

Riff1

e-----------2------
B-----0-4-4-3------
G---0-0---0-4------
D-----2---2-4------
A-----3---3-2------
E-----2---2-2------
     D   D2 Bm

D			   F#m
Meet me down by the jetty landing
C			     D      Dsus2  D
Where the pontoons bump and sway
D			 F#m
All the others reading, standing
C		     Em 			D     
As the Manly ferry, cuts its way to Circular Quay    

D			   F#m
Hear the captain blow his whistle
C		   D     Dsus2 D
So long he's been away
D			   F#m
I miss our early morning wrestle
C    		  Em      	    D      *riff1*
Not a very happy way to start the day
[ Tab from: http://www.guitaretab.com/p/paul-kelly/138697.html ]
Bm	   A	 G		D
She donít like, that kind of behavior
Bm	   A     G             D
She donít like, that kind of behavior
D2		 D3   G		   D
Throw down your gun, donít be so reckless
D2		 D3     G
Throw down your gun

D		   F#m
Like Scott in the Antarctic
C		    D    Dsus2  D
Base camp too far away
D		   	  F#m
Russian sub beneath the Arctic
C			      Em		D    *riff1*
Burke and Wills and camels, Initials in the tree

Bm	   A	 G		D
She donít like, that kind of behavior
Bm	   A     G             D
She donít like, that kind of behavior
D!		 Bm   G		   D
Throw down your gun, donít be so reckless
D!		 Bm     G
Throw down your gun
    D F#m C  C Em Dsus2 G  D2 D3
e---2--2--3--0--0--0----3--2--2------------------------
B---3--2--3--1--0--3----3--3--3-------------------------
G---2--2--0--0--0--2----0--2--0------------------------
D---0--4--2--2--2--0----0--0--0------------------------
A------4--3--3--2-------2--4--2-----------------------
E------2-----3--0-------3---------------------------
Related for Reckless tab