Song name
# A B C D E F G H I J K L M N O P Q R S T U V W X Y Z

Paul Mccartney - Junk tab

--------------------------------------------------------------

   PAUL McCARTNEY - JUNK. From McCARTNEY album. Released 1970.

--------------------------------------------------------------

   Tabbed by:PJVillanueva






Motor cars, handle bars,
Bicycles for two.
Broken hearted jubilee.

Parachutes, army boots,
Sleeping bags for two.
Sentimental jamboree.

Buy! buy!
Says the sign in the shop window.
Why? why?
Says the junk in the yard.

Da da ya da da da
Da da da
Da da ya da da
Da da da da da da da.

Candlesticks, building bricks,
Something old and new.
Memories for you and me.

Buy! buy!
Says the sign in the shop window.
Why? why?
Says the junk in the yard.






       Tune low E string down to D for the bass part.




  F#m                           C#7 
e|5-------- 5-------- 5--------|4-------- 4-------- 4--------|
B|2-----2---2---------2--------|2-----2---2-----2---2--------|
G|2-----2---2---------2--------|4-----4---4-----4---4--------|
D|4----------------------------|3----------------------------|
A|-----------------------------|-----------------------------|
E|-----------------------------|-----------------------------|
  Motor     cars,               handle    bars,



  F#m7                          Dmaj7
e|2-----4-- 2-----5-- 5--------|2-------- 2-------- 2--------|
B|2-----2---2-----2---2--------|2-----2---2---------2--------|
G|2-----2---2-----2---2--------|2-----2---2---------2--------|
D|2----------------------------|0----------------------------|
A|-----------------------------|-----------------------------|
E|-----------------------------|-----------------------------|
  Bicycles            for   two.



                       
e|2-----4-- 5-------- 7--------|2-------- 2------5-- 5-------|
B|2-----2---2------------------|2-----2---2------2---2-------|
G|2-----2---2------------------|2-----2---2------2---2-------|
D|0----------------------------|0----------------------------|
A|-----------------------------|-----------------------------|
E|-----------------------------|-----------------------------|
  Broken    hearted             jubilee.



  A                Aadd9sus4  A       
e|--------- --------- ---------|--------- --------- ---------|
B|----------------2B3-------3P2|----------2B3-------2--------|
G|----------------2B4-------4P2|----------2B4-------2--------|
D|----------2------------------|-----2-----------------------|
A|0----------------------------|0----------------------------|
E|-----------------------------|-----------------------------|



  00:17
  F#m                           C#7 
e|5-------- 5-------- 5--------|4-----5-- 4-------- 4--------|
B|2-----2---2---------2--------|2---------2-----2---2--------|
G|2-----2---2---------2--------|4---------4-----4---4--------|
D|4----------------------------|3----------------------------|
A|-----------------------------|-----------------------------|
E|-----------------------------|-----------------------------|   
  Parachutes,                   army      boots,
e|--------- --------- ---------|--------- --------- ---------|
B|-----------------------------|-----------------------------|
G|-----------------------------|-----------------------------|
D|-----------------------------|-----------------------------|
A|-----------------------------|4----------------------------|
D|4----------------------------|-----------------------------|




  F#m7                          Dmaj7
e|2-----4-- 2-----5-- 5--------|2-------- 2-------- 2--------|
B|2-----2---2-----2---2--------|2-----2---2---------2--------|
G|2-----2---2-----2---2--------|2-----2---2---------2--------|
D|2----------------------------|0----------------------------|
A|-----------------------------|-----------------------------|
E|-----------------------------|-----------------------------|
  Sleeping  bags      for   two.
e|--------- --------- ---------|--------- --------- ---------|
B|-----------------------------|-----------------------------|
G|-----------------------------|-----------------------------|
D|-----------------------------|-----------------------------|
A|-----------------------------|--------------------------0--|
D|4----------------------------|0-----2---------4------------|





e|2-----4-- 5-------- 7--------|2-----2-- 2-----5-- 5--------|
B|2-----2---2------------------|2-----2---2-----2---2--------|
G|2-----2---2------------------|2-----2---2-----2---2--------|
D|0----------------------------|0----------------------------|
A|-----------------------------|-----------------------------|
E|-----------------------------|-----------------------------|
  Sentimental                   jamboree.
e|--------- --------- ---------|--------- --------- ---------|
B|-----------------------------|-----------------------------|
G|-----------------------------|-----------------------------|
D|-----------------------------|-----------------------------|
A|5-------------------/--------|-----------------------------|
D|-----------------------------|0----------------------------|




  A                Aadd9sus4  A       
e|--------- --------- ---------|--------- --------- ---------|
B|----------------2B3-------3P2|----------2B3-------2--------|
G|----------------2B4-------4P2|----------2B4-------2--------|
D|----------2------------------|-----2-----------------------|
A|0----------------------------|0----------------------------|
E|-----------------------------|-----------------------------|

e|--------- --------- ---------|--------- --------- ---------|
B|-----------------------------|-----------------------------|
G|-----------------------------|-----------------------------|
D|-----------------------------|-----------------------------|
A|0----------------------------|0----------------------------|
D|-----------------------------|-----------------------------|



  00:32
  D7sus4          Dm7           A
e|3-------- 3-----1-- 1--------|0-------- --------- 0--------|
B|1-----1---1-----1---1--------|2-----2---2-----2---2--------|
G|2-----2---2-----2---2--------|2-----2---2-----2---2--------|
D|0----------------------------|2-----2---2-----2---2--------|
A|-----------------------------|0----------------------------|
E|-----------------------------|-----------------------------|
  Buy!                          buy!      Says      the 
e|--------- --------- ---------|--------- --------- ---------|
B|-----------------------------|-----------------------------|
G|-----------------------------|-----------------------------|
D|-----------------------------|-----------------------------|
A|-----------------------------|0----------------------------|
D|0----------------------------|-----------------------------|




  E         E6        E7        A         Asus4     A
e|--------- 0-------- 0--------|--------- --------- 0--------|
B|0-----0---2---------3--------|2---------3---------2--------|
G|1-----1---1---------1--------|2---------2---------2--------|
D|2-----2---2---------2--------|2---------2---------2--------|
A|-----------------------------|0----------------------------|
E|0----------------------------|-----------------------------|
  sign      in        the       shop      window.
e|--------- --------- ---------|--------- --------- ---------|
B|-----------------------------|-----------------------------|
G|-----------------------------|-----------------------------|
D|-----------------------------|-----------------------------|
A|-----------------------------|0---------2---------4--------|
D|2---------4---------6--------|-----------------------------|




  D7sus4          Dm7           A
e|3-------- 3-----1-- 1--------|0-------- ------0-- 0--------|
B|1-----1---1-----1---1--------|2-----2---2-----2---2--------|
G|2-----2---2-----2---2--------|2-----2---2-----2---2--------|
D|0----------------------------|2-----2---2-----2---2--------|
A|-----------------------------|0----------------------------|
E|-----------------------------|-----------------------------|
  Why?                          why?      Says      the 
e|--------- --------- ---------|--------- --------- ---------|
B|-----------------------------|-----------------------------|
G|-----------------------------|-----------------------------|
D|-----------------------------|-----------------------------|
A|5----------------------------|0----------------------------|
D|-----------------------------|-----------------------------|




  E         E6        E7        A         
e|--------- 0-------- 0--------|------0-- 0-------- 0--------|
B|0-----0---2---------3--------|2-----2---2---------2--------|
G|1-----1---1---------1--------|2-----2---2---------2--------|
D|2-----2---2---------2--------|2-----2---2---------2--------|
A|2----------------------------|0----------------------------|
E|0----------------------------|-----------------------------|      
  junk      in        the       yard.
e|--------- --------- ---------|--------- --------- ---------|
B|-----------------------------|-----------------------------|
G|-----------------------------|-----------------------------|
D|-----------------------------|-----------------------------|
A|-----------------------------|0----------------------------|
D|2---------4---------6--------|-----------------------------|



  00:48

e|5-------- 5-------- 5--------|4-----5-- 4-------- 4--------|      
B|2---------2---------2--------|2-----2---2---------2--------|
G|2---------2---------2--------|4-----4---4---------4--------|
D|4----------------------------|3----------------------------|
A|-----------------------------|-----------------------------|
E|-----------------------------|-----------------------------|   
  Da    da  ya    da  da    da  Da    da  da
e|--------- --------- ---------|--------- --------- ---------|
B|-----------------------------|-----------------------------|
G|-----------------------------|-----------------------------|
D|-----------------------------|-----------------------------|
A|----------------4------------|----------------4------------|
D|4-------------------------4--|3-------------------------3--|     





e|2-------- 2-------- 5--------|2-----2-- 2-------- 2--------|
B|2---------2-----2---2--------|2-----2---2---------2--------|
G|2---------2-----2---2--------|2-----2---2---------2--------|
D|2----------------------------|0----------------------------|
A|-----------------------------|-----------------------------|
E|-----------------------------|-----------------------------|
  Da    da  ya    da            da
e|--------- --------- ---------|--------- --------- ---------|
B|-----------------------------|-----------------------------|
G|-----------------------------|-----------------------------|
D|-----------------------------|-----------------------------|
A|----------------4---------0--|--------------------------0--|
D|2----------------------------|0-----2---------4------------|





e|2-----4-- 5-------- 7--------|2-----2-- 2-----5-- 5--------|
B|2-----2---2------------------|2-----2---2-----2---2--------|
G|2-----2---2------------------|2-----2---2-----2---2--------|
D|0----------------------------|0----------------------------|
A|-----------------------------|-----------------------------|
E|-----------------------------|-----------------------------|
  Da    da  da        da        da                  da 
e|--------- --------- ---------|--------- --------- ---------|
B|-----------------------------|-----------------------------|
G|-----------------------------|-----------------------------|
D|-----------------------------|-----------------------------|
A|5----------------------------|-----------------------------|
D|-----------------------------|0----------------------------|





e|--------- --------- ---------|--------- --------- ---------|
B|----------------2B3-------3P2|----------2B3-------2--------|
G|----------------2B4-------4P2|----------2B4-------2--------|
D|----------2------------------|-----2-----------------------|
A|0----------------------------|0----------------------------|
E|-----------------------------|-----------------------------|   
  da.
e|--------- --------- ---------|--------- --------- ---------|
B|-----------------------------|-----------------------------|
G|-----------------------------|-----------------------------|
D|-----------------------------|-----------------------------|
A|0----------------------------|0----------------------------|
D|-----------------------------|-----------------------------|



  01:04

e|5-------- 5-------- 5--------|4-------- 4-----4-- 4--------|
B|2---------2---------2--------|2---------2-----2---2--------|
G|2---------2---------2--------|4---------4-----4---4--------|
D|4----------------------------|3----------------------------|
A|-----------------------------|-----------------------------|
E|-----------------------------|-----------------------------|   
  Candlesticks,                 building  bricks,
e|--------- --------- ---------|--------- --------- ---------|
B|-----------------------------|-----------------------------|
G|-----------------------------|-----------------------------|
D|-----------------------------|-----------------------------|
A|----------------4---------0--|----------------4---------0--|
D|4----------------------------|3----------------------------|





e|2-----4-- 2-----5-- 5--------|2-------- 2-------- 2--------|
B|2-----2---2-----2---2--------|2-----2---2---------2--------|
G|2-----2---2-----2---2--------|2-----2---2---------2--------|
D|2----------------------------|0----------------------------|
A|-----------------------------|-----------------------------|
E|-----------------------------|-----------------------------|
  Something old       and   new.
e|--------- --------- ---------|--------- --------- ---------|
B|-----------------------------|-----------------------------|
G|-----------------------------|-----------------------------|
D|-----------------------------|-----------------------------|
A|-------------4--5---4--0-----|--------------------------0--|
D|2-------------------------2--|0---------2---------4--------|





e|2-----4-- 5-------- 7--------|2-------- 2-----5-- 5--------|
B|2-----2---2------------------|2---------2-----2---2--------|
G|2-----2---2------------------|2---------2-----2---2--------|
D|0----------------------------|0----------------------------|
A|-----------------------------|-----------------------------|
E|-----------------------------|-----------------------------|
  Memories            for       you                 and 
e|--------- --------- ---------|--------- --------- ---------|
B|-----------------------------|-----------------------------|
G|-----------------------------|-----------------------------|
D|-----------------------------|-----------------------------|
A|5----------------------------|-----------------------------|
D|-----------------------------|0----------------------------|





e|--------- --------- ---------|--------- --------- ---------|
B|----------------2B3-------3P2|----------2B3-------2--------|
G|----------------2B4-------4P2|----------2B4-------2--------|
D|----------2------------------|-----2-----------------------|
A|0----------------------------|0----------------------------|
E|-----------------------------|-----------------------------|  
  me.
e|--------- --------- ---------|--------- --------- ---------|
B|-----------------------------|-----------------------------|
G|-----------------------------|-----------------------------|
D|-----------------------------|-----------------------------|
A|0----------------------------|0---------2---------4--------|
D|-----------------------------|-----------------------------|



  01:20

e|3-------- 3-----1-- 1--------|0-----0-- 0-------- 0--------|
B|1-----1---1-----1---1--------|2-----2---2---------2--------|
G|2-----2---2-----2---2--------|2-----2---2---------2--------|
D|0----------------------------|2-----2---2---------2--------|
A|-----------------------------|0----------------------------|
E|-----------------------------|-----------------------------|
  Buy!                          buy!      Says      the 
e|--------- --------- ---------|--------- --------- ---------|
B|-----------------------------|-----------------------------|
G|-----------------------------|-----------------------------|
D|-----------------------------|-----------------------------|
A|5----------------------------|0----------------------------|
D|-----------------------------|-----------------------------|





e|--------- 0-------- 0--------|0-------- 0-------- 0--------|
B|0-----0---2---------3--------|2-----2---3---------2--------|
G|1-----1---1---------1--------|2-----2---2---------2--------|
D|2-----2---2---------2--------|2-----2---2---------2--------|
A|-----------------------------|0----------------------------|
E|0----------------------------|-----------------------------|      
  sign      in        the       shop      window.
e|--------- --------- ---------|--------- --------- ---------|
B|-----------------------------|-----------------------------|
G|-----------------------------|-----------------------------|
D|-----------------------------|-----------------------------|
A|-----------------------------|0---------2---------4--------|
D|2---------4---------6--------|-----------------------------|





e|3-------- 3-----1-- 1--------|0-------- 0-------- 0--------|
B|1-----1---1-----1---1--------|2---------2---------2--------|
G|2-----2---2-----2---2--------|2---------2---------2--------|
D|0----------------------------|2---------2---------2--------|
A|-----------------------------|0----------------------------|
E|-----------------------------|-----------------------------|
  Why?                          why?      Says      the 
e|--------- --------- ---------|--------- --------- ---------|
B|-----------------------------|-----------------------------|
G|-----------------------------|-----------------------------|
D|-----------------------------|-----------------------------|
A|5----------------------------|0----------------------------|
D|-----------------------------|-----------------------------|





e|0-----0-- 0-------- 0--------|
B|0-----0---2---------3--------|
G|1-----1---1---------1--------|
D|2-----2---2---------2--------|
A|2----------------------------|
E|0----------------------------|    
  junk      in        the       
e|--------- --------- ---------|
B|-----------------------------|
G|-----------------------------|
D|-----------------------------|
A|-----------------------------|
D|2---------4---------6--------|



                                01:36
  F#m                           C#7 
e|5-----5-- 5-------- 5--------|4-------- 4-------- 4--------|
B|2-----2---2---------2--------|2---------2---------2--------|
G|2-----2---2---------2--------|4---------4---------4--------|
D|4----------------------------|3----------------------------|
A|-----------------------------|-----------------------------|
E|-----------------------------|-----------------------------| 
  yard.                         Aaaaaaaaaaaaaaaaaaaaaaaaaaaaa
e|--------- --------- ---------|--------- --------- ---------|
B|-----------------------------|-----------------------------|
G|-----------------------------|-----------------------------|
D|-----------------------------|-----------------------------|
A|----------------4---------0--|----------------4---------0--|
D|4----------------------------|3----------------------------|



                               (.
  F#m7                          Dmaj7
e|2-------- 2-----5-- 5--------|2-------- --------- ---------|
B|2-----2---2-----2---2--------|2----------------------------|
G|2-----2---2-----2---2--------|2----------------------------|
D|2----------------------------|0----------------------------|
A|-----------------------------|-----------------------------|
E|-----------------------------|-----------------------------|
  aaaaaooooooooaaaaoooaaaaooooooaaaaaaah
e|--------- --------- ---------|--------- --------- ---------|
B|-----------------------------|-----------------------------|
G|-----------------------------|-----------------------------|
D|-----------------------------|-----------------------------|
A|-------------4--5---4--0-----|-----------------------------|
D|2-------------------------2--|0----------------------------|



                                                          (.

e|2----4--- 5----5/7- ---------|2-------- ---2P0--- ---------|
B|2----------------------------|2----------------3--2--0---0-|
G|2----------------------------|2------------------------2---|
D|0----------------------------|0----------------------------|
A|-----------------------------|-----------------------------|
E|-----------------------------|-----------------------------|

e|--------- --------- ---------|------4/5 4--2----- ---32320-|
B|-----------------------------|----------------------------23
G|-----------------------------|-----------------------------|
D|-----------------------------|-----------------------------|
A|-----------------------------|-----------------------------|
E|-----------------------------|-----------------------------|



                    A            (.
  A           Aadd9sus4   A6  A         
e|------- ------- ------- -------|5------ ------- ------- -------|
B|--------2---3---3P2------------|2------------------------------|
G|--------2---4---4P2-2---2---2--|2------------------------------|
D|----2---------------2---4---2--|2------------------------------|
A|0------------------------------|0------------------------------|
E|-------------------------------|-------------------------------|

e|------- ------- ------- -------|------- ------- ------- -------|
B|2320---------------------------|-------------------------------|
G|-----2--0--2-------------------|-------------------------------|
D|--------------------2P0--------|2------------------------------|
A|---------------------------2/4-|-------------------------------|
E|-------------------------------|-------------------------------|










        B  Bend
        R  Release
        /  Slide up
        \  Slide down
        H  Hammer-on
        P  Pull-off
        ~  Vibrato
        +  Harmonic
        x  Mute note
        .  Play note like a dot in standard notation
        ^  Ties two notes together
        (. Pause



Tap to rate this tab
 
# A B C D E F G H I J K L M N O P Q R S T U V W X Y Z