Song name
# A B C D E F G H I J K L M N O P Q R S T U V W X Y Z

Paul Mccartney - Here Today tab

|-----------------------------------------------------------------------|
                       PAUL MCCARTNEY - HERE TODAY
                         (Album: Back in the US)
|-----------------------------------------------------------------------|

Tabbed by: Swayne (3.8.2007) - swayne@pobox.sk



INTRO:

e|--------------------------------|--------------------------------|
B|-------------0--------------0---|-----------0--------------0-----|
G|----------0--------------0------|--------0--------------0--------|
D|-------2--------------2---------|-----2--------------2-----------|
A|--0/4--------------4------------|--3--------------3--------------|
E|--------------------------------|--------------------------------|






VERSE 1: (same as VERSE 2 and VERSE 3)

    Em/C#			     Em/C

            AND IF I SAY...             I  REALLY KNEW...    WHAT 
e|--------------------------------|--------------------------------|
B|-------------0--------------0---|-----------0--------------0-----|
G|----------0--------------0------|--------0--------------0--------|
D|-------2--------------2---------|-----2--------------2-----------|
A|--0/4--------------4------------|--3--------------3--------------|
E|--------------------------------|--------------------------------|

   G		   G     G/F#	     Em

    WOULD...       BE...	        IF YOU WERE... 
e|--------------------------------|--------------------------------|
B|-------------------0-----0------|--------------------0---0---0---|
G|-----------0-------0-----0------|-----------0--------0---0---0---|
D|--------0----------0-----0------|--------2-----------2---2---0---|
A|-----2-------------2-----2------|-----2--------------2---2---2---|
E|--3--------------3-----2--------|--0--------------0--------------|

    Cm		   Csus2	     Cm		    G

    OOH -	   OOH - 	     OOH - HERE TO- DAY
e|--3--3--3--3-----3--3--3--3-----|--3--3--3--3-----3-3-3-3- ~ ----|
B|--4--4--4--4-----3--3--3--3-----|--4--4--4--4-----3-3-3-3- ~ ----|
G|--5--5--5--5-----5--5--5--5-----|--5--5--5--5-----4-4-4-4- ~ ----|
D|--5--5--5--5-----5--5--5--5-----|--5--5--5--5-----5-5-5-5- ~ ----|
A|--3--3--3--3-----3--3--3--3-----|--3--3--3--3-----5-5-5-5- ~ ----|
E|--3--3--3--3-----3--3--3--3-----|--3--3--3--3-----3-3-3-3- ~ ----|




CHORDS:


Em	022000
Em/C#	x4200x
Em/C 	x3200x
Ebdim7	001212 (x01212)
G	320033
G/F#	200033
Cm	335543
Csus2	335533
C	33201x
F	13321x
Am	x02210
Fmaj7	x03210
D7	x00212




Em/C#	     Em/C
And if I say I really knew you well
     G		       G   G/F#
What would your answer be
Em
If you were here today
Cm    Csus2 Cm            G
Ooh - ooh - ooh... Here today


Em/C#		  Em/C
Well knowing you, you'd probably laugh
	     G		     G	  G/F#
And say that we were worlds apart
Em
If you were here today
Cm    Csus2 Cm            G
Ooh - ooh - ooh... Here today


C             F			      C
But as for me I still remember how it was before
F			 C     Am  Em
And I'm holding back the tears no  more
C     Am   Em      Fmaj7       D7
Ooh - no - no... I love you... Ooh...


G
What about the time we met
         Ebdim7				  Em
Well I suppose you could say that we were playing hard to get
   Em					  Am	 D7
We didn't understand a thing but we could always sing
Em
What about the night we cried
              Ebdim7                    Em
Because there wasn't any reason left to keep it all inside
Em				     Am     D7           Em
Never understood a word but you were always there with a smile



Em/C#        Em/C
And if I say I really loved you
	G	       G     G/F#
And was glad you came along
Em
And you were here today
Cm    Csus2 Cm			      G
Ooh - ooh - ooh... for you were in my song
Cm    Csus  Cm		  G	C, G
Ooh - ooh - ooh... Here today
Tap to rate this tab
# A B C D E F G H I J K L M N O P Q R S T U V W X Y Z