Song name
# A B C D E F G H I J K L M N O P Q R S T U V W X Y Z

Paul Mccartney - My Valentine tab

E|------------------|----------|--------------------------------3---|
B|--------/10-10-10-|--------8-|--------/10-10--8--6--5--3-1-/5---5-|
G|-/5-4-5-----------|-/5-4-5---|-/5-4-5-----------------------------|
D|------------------|----------|------------------------------------|
A|------------------|----------|------------------------------------|
E|------------------|----------|------------------------------------|

|---------------------|--------------|-------------------|----------|
|-13-10/12--8-8/10-10-|-/10-8--5-5h6-|---5-6-5-----------|----------|
|---------------------|--------------|-7-------7p5-----5-|-\2-4-5-7-|
|---------------------|--------------|-------------5h7---|----------|
|---------------------|--------------|-------------------|----------|
|---------------------|--------------|-------------------|----------|

|----------------|
|----------------|
|-5-4--5-7--10-9-|
|----------------|
|----------------|
|----------------|
Tap to rate this tab
# A B C D E F G H I J K L M N O P Q R S T U V W X Y Z