Song name
# A B C D E F G H I J K L M N O P Q R S T U V W X Y Z

Paul Mccartney - My Valentine tab

"My Valentine"  P. McCartney (Capo: 3)
by claudio@tognozzi.it

Bm7* = x04030

Intro: Am7  Bm7*  
 
Verse: 1
            Am                C
 What if it rained? We didn't care
               D                Dm              Am
 she said that someday soon the sun was gonna shine
               B7                E7   
 and she was right, this love of mine,
         Am7  Bm7*  (x2)
 my valentine

Verse: 2
As days and nights would pass me by
I tell myself that I was waiting for a sign
then she appeared, a love so fine, 
          Am7  Bm7*   A
my valentine

(Chorus)
            D7sus          C#m7 
 And I will love her for life
            D7sus          C#m7
 and I will never let a day go by
            D7sus          Bm7
 without remembering the reasons why
            D                   E7/4    E
 she makes me certain that I can fly

Verse: 3
And so I do, without a care
I know that someday soon the sun is gonna shine
and she'll be there, this love of mine,
          Am7  Bm7*   A
my valentine

(assolo)
|----------------------------|----------------------|---------------------------|
|---------------10--10--10---|---------------8------|-------------10---10-8---8-|
|----------------------------|----------------------|---------------------------|
|----10----9-10--------------|-----10---9-10--------|---10---9-10---------------|
|----------------------------|----------------------|---------------------------|
|----------------------------|----------------------|---------------------------|

---------------------------|-----8--7----------------|--------------------------|
--------------------8------|------------8-8--10------|------10--8---------------|
--10--9----7----9-----9----|-------------------------|--------------9-10--------|
-------------10------------|-------------------------|--------------------------|
---------------------------|-------------------------|--------------------------|
---------------------------|-------------------------|--------------------------|

                                       |---3--|                                       
------------------------------|----------------------------|--------------------||
------------------------------|----------------------------|--------------------||
------7-9-10--7---------------|----------------7-----------|---------7----------||
----------------10-7--10------|------7--9--10-----------10-|--9---10------------||
------------------------------|----------------------------|--------------------||
------------------------------|----------------------------|--------------------||

Verse: 1
What if it rained? We didn't care
she said that someday soon the sun was gonna shine
and she was right, this love of mine,
my valentine
Tap to rate this tab
# A B C D E F G H I J K L M N O P Q R S T U V W X Y Z