Song name
# A B C D E F G H I J K L M N O P Q R S T U V W X Y Z

Paul Weller - All On A Misty Morning tab

ok so this is my first ever tab, be kind !
its a song that ive always wanted to learn but i couldnt find it any where

Paul Weller 
All on a misty morning 
-------------------------------------------------------

E |------------------------------------------------------2-|
B |---------------------------------------------------3----|
G |---------0--2--0h2p0-------------------0--2--4--2-------|
D |----2h4---------------4--0--2-----2h4-------------------|
A |-0-----------------------------0------------------------|
E |--------------------------------------------------------|



E |------------------------------------------|
B |------------------------------------------|
G |---------0--2--0h2p0----------------------|
D |----2h4---------------4--0--2--0--0--4--0-|
A |-0-----------------------------0--0--0--0-|
E |------------------------------------------|
Tap to rate this tab
 
# A B C D E F G H I J K L M N O P Q R S T U V W X Y Z