Song name
# A B C D E F G H I J K L M N O P Q R S T U V W X Y Z

Paul Weller - Goin Places tab

Song Title: GOING PLACES
Artist: WELLER PAUL
Tabbed by: Victor Roda (NGallagher)

Chords Used:
Dmaj7  xx0222 OR x5767x
D/F#   xx4232
Em     022000
A      002220
Am     002210
Gmaj7  004430

INTRO:
                            D/F# Dmaj7
e-------------------2--2--2--2----2--2---------------------|
B-------------------2--2--2--2h3--2--2---------------------|
G-------------------2--2--2--2----2--2---------------------|      (X2)
D-------0---0----------------0h4---------------------------|
A---0h2---2------------------------------------------------|
E----------------------------------------------------------|

VERSE 1:

Dmaj7                   D/F# Dmaj7
COME TO MY SIDE CHILD,
Dmaj7                  D/F# Dmaj7
DONT LEAVE ME ALONE,
Dmaj7                  D/F# Dmaj7
STAY WITH ME DARLING,
Dmaj7                       D/F# Dmaj7   (RIFF 3)
I CANT STAY HERE ON MY OWN.

VERSE 2:

Dmaj7                   D/F# Dmaj7
I NEED YOU TO BE WITH ME
Dmaj7                   D/F# Dmaj7
I NEED YOU IN LIFE
Dmaj7                   D/F# Dmaj7
I WANT YOU FOREVER
Dmaj7                   D/F# Dmaj7
BE YOURS AND YOU'LL BE MINE
Dmaj7 D/F# Dmaj7  (RIFF 3)
OH CHILD

CHORUS:

Em                  A     (RIFF 3)
CAUSE WE'RE GOING PLACES,
Em                   A     (RIFF 3)
WE NEVER DREAM WE COULD,
Em                    A      (RIFF 3)
THROUGH ALL KINDS OF CHANGES,
Am                  Gmaj7                           Dmaj7 D/F# Dmaj7 D/F# (RIFF 2)
AND STILL MY HEARTS BEAT CLOSER MORE AND MORE,

BRIDGE:
Em                A         (RIFF 2)
MORE THAN JUST A HEARTBEAT,
Em             A      (RIFF 2)
FROM THE CITY FLOOR,
Em                  A
MORE THAN JUST THE BRIGHT LIGHTS,
Am                    Gmaj7
THAT LED ME TO YOUR DISTANT SHORE...


Intro (4 times) and then

VERSE 3:

Dmaj7                   D/F# Dmaj7
I'M KEEPING MY HEAD UP
Dmaj7                   D/F# Dmaj7
AND OUT OF THE SEND
Dmaj7                   D/F# Dmaj7
WAY CROSS THE ROOFTOPS
Dmaj7                   D/F# Dmaj7
I'M GONNA PLAN OUR ESCAPE
Dmaj7 D/F# Dmaj7  (RIFF 3)
OH CHILD


Em                  A     (RIFF 3)
CAUSE WE'RE GOING PLACES,
Em                   A     (RIFF 3)
WE NEVER DREAM WE COULD,
Em                    A      (RIFF 3)
THROUGH ALL KINDS OF CHANGES,
Am                  Gmaj7                           Dmaj7 D/F# Dmaj7 D/F# (RIFF 3)
AND STILL MY HEARTS BEAT CLOSER MORE AND MORE,

Em                  A     (RIFF 3)
CAUSE WE'RE GOING PLACES,
Em                   A     (RIFF 3)
WE NEVER DREAM WE COULD,
Em                    A      (RIFF 3)
THROUGH ALL KINDS OF CHANGES,
Am                  Gmaj7                           Dmaj7 D/F#
AND STILL MY HEARTS BEAT CLOSER MORE AND MORE,


OUTRO:

e-5-3-2-------------------|
B-------5-3-2-3-3-2h3-2-3-|
G-------------------------|
D-------------------------|
A-------------------------|
E-------------------------|


RIFF 2:

e---------------------|
B---------------------|
G----2p0--------------|
D---------4--2--------|
A---------------------|
E---------------------|


RIFF 3:

e------------0-|
B------------0-|
G------------0-|
D------------2-|
A--------0---2-|
E-0-2-3----0-0-|
Tap to rate this tab
 
# A B C D E F G H I J K L M N O P Q R S T U V W X Y Z