Song name
# A B C D E F G H I J K L M N O P Q R S T U V W X Y Z

Paws - Sore Tummy tab

Sore Tummy - Paws
standard tuning

CHORDS
B: e---   A: e---   G#: e---   F#: e---   Em: e---|
   B---      B---       B---       B---       B---|
   G-8-      G---       G---       G---       G---|
   D-9-      D-7-       D-6-       D-4-       D-2-|
   A-9-      A-7-       A-6-       A-4-       A-2-|
   E-7-      E-5-       E-4-       E-2-       E-0-|

Riff 1
e------------------------------------------------|
B------------------------------------------------|
G------------------------------------------------|
D--9-11-11-9-9-9---------------------------------|
A--0-0--0--0-0-0-9-11-11-11-11-11-11-11-11-------|
E----------------0-0--0--0--0--0--0--0--0--------|

Riff 2
e------------------------------------------------|
B------------------------------------------------|
G------------------------------------------------|
D--9-11-11-9-9-9---------------------------------|
A--0-0--0--0-0-0-9-11-11-11-11-11-11-9-7---------|
E----------------0-0--0--0--0--0--0--0-0---------|

INTRO:
Riff 1
Riff 2
Riff 1
B A

VERSE 1:

(riff 1)
You don't know what I want
(riff 2)
You don't know anything
(riff 1)
The doctors don't know anything
B               A
It's not right, not right

(riff 1)
Scream out loud kick the wall
(riff 2)
Will you run when I call?
(riff 1)
The doctors don't know anything
B               A
It's not right, not right

CHORUS:

      G#                B
Well my belly sure does hurt me
         F#                 Em
But it's okay 'cause I feel damn alive
    G#                    B
The contractions come and go like a bird
         F#                    Em
But if a baby's on the way I'd be surprised
Em       F# F# F# F# A
Be surpr-ah-ah-ah-ah-ised

Riff 1
Riff 2
Riff 1
B A

VERSE 2:

(riff 1)
He looks like a junkie sometimes
(riff 2)
But junkies have beautiful eyes
(riff 1)
The doctors don't know anything
B               A
It's not right, not right

(riff 1)
You're all tired of hearing me
(riff 2)
Talk about sore tummy
(riff 1)
The doctors don't know anything
B               A
It's not right, not right

CHORUS

OUTRO

https://www.facebook.com/wehavepaws
Tap to rate this tab
# A B C D E F G H I J K L M N O P Q R S T U V W X Y Z