Song name
# A B C D E F G H I J K L M N O P Q R S T U V W X Y Z

Pay The Girl - Gravity tab

This song is very easy to play. 

h = Hammer on
p = pull off

Capo on 3rd fret

Verse and Intro:
This is play 4 times in the intro and then 4 times for the verse.

  
|-----1----------|
|-----1-1---0----|
|-0h2---2---0-0--|
|-----0-------3--|
|-------0---3----|
|-------------1--|


Refrain:

4 times

|-------------------------------|
|-------------------------------|
|-0-0--0-0--0-----0-----0-----0-|
|-5-5--7-7--3-----3-----3-----3-|
|-------------------------------|
|-3-3--5-5--1-0h1---0h1---0h1---|


Bridge:


9 times

|----------------------------------|
|----------------------------------|
|--------------------------0-------|
|-----7--------5-------3-----3---3-|
|---7---7----5---5---3---3-----3---|
|-5--------3-------1---------------|

1 time

|----------------------------------|
|----------------------------------|
|--------------------0-----0-----0-|
|-----7--------5-----3-----3-----3-|
|---7---7----5---5-----------------|
|-5--------3-------1---0h1---0h1---|

then refrain


Hope you enjoy!
Tap to rate this tab
 
# A B C D E F G H I J K L M N O P Q R S T U V W X Y Z