Song name
# A B C D E F G H I J K L M N O P Q R S T U V W X Y Z

Peaches - Do Ya tab

Hey everybody this is my first tab so I apologize if it sucks. Anyway This song was on 
one Gap commercial if you recognize it or whatever.

Standard Tuning


Main Verse Thing:

"See That Dream...."
|---------------------------------|
|---------------------------------|
|---------------------------------|
|-------7--7----------------------|
|-------7--7-----x4---------------|
|-------5--5----------------------|

Chorus:

I am the one who will take you....)
|-------------------------------------------------------------------------|
|-------------------------------------------------------------------------|
|------------------------------5----5-----2----2--------------------------|
|-------7----7------5----5-----5----5-----2----2------x2------------------|
|-------7----7------5----5-----3----3-----0----0--------------------------|
|-------5----5------3----3------------------------------------------------|


"Do ya wanna go? Be in my show......"
|---------------------------------|
|---------------------------------|
|---------------------------------|
|-------7--7----------------------|
|-------7--7-----x4---------------|
|-------5--5----------------------|


"Some people get so wet they need contact...."
|-------------------------------------------------------------------------|
|-------------------------------------------------------------------------|
|------------------------------5----5-----2----2--------------------------|
|-------7----7------5----5-----5----5-----2----2------x2------------------|
|-------7----7------5----5-----3----3-----0----0--------------------------|
|-------5----5------3----3------------------------------------------------|

Repeat chorus as much as needed with the do ya's please rate.

PS sorry i never check my email so im not gonna bother putting it but hey if you wanna 
me know what you think rate me!!!!

Thanks so much
Girl @n(aChRo)nism
Tap to rate this tab
 
# A B C D E F G H I J K L M N O P Q R S T U V W X Y Z