Song name
# A B C D E F G H I J K L M N O P Q R S T U V W X Y Z

Peacocks - Goodbye tab

The Peacocks- Goodbye
Catergory- Psychobilly/Ska
Album- In Without Knocking
Tabbed by: Garth Clifton(berlioz96@hotmail.com)

Verse-
G|---------------------7-7-7-7-7-9-9-9-9-9-|
D|-7-7-7-7-7-9-9-9-9-9-7-7-7-7-7-9-9-9-9-9-|
A|-7-7-7-7-7-9-9-9-9-9-5-5-5-5-5-7-7-7-7-7-|
E|-5-5-5-5-5-7-7-7-7-7---------------------|
"Goodbye to you and all the stupid things you gonna do...."

Chorus-
e|-------------4-4-4-4---7-7-7-7-7-|
B|---7-7-7-7---5-5-5-5---7-7-7-7-7-|
G|---7-7-7-7---6-6-6-6---8-8-8-8-8-|
D|---7-7-7-7---6-6-6-6---9-9-9-9-9-|
A|5----5-5-5-4---4-4-4---9-9-9-9-9-|
E|---------------------7---7-7-7-7-|
<-------SKA STRUMMING-------------->

Post Chorus-
G|-----------------7-7-9----------------|
D|-7-7-7-7-7-7-7-7-7-7-9-LET RING-7-8-9-|
A|-7-7-7-7-7-7-7-7-5-5-7----------7-8-9-|
E|-5-5-5-5-5-5-5-5----------------5-6-7-|
"...some thing in your life..."
Tap to rate this tab
 
# A B C D E F G H I J K L M N O P Q R S T U V W X Y Z