Song name
# A B C D E F G H I J K L M N O P Q R S T U V W X Y Z

Pearl Jam - Its Ok tab

-------------------------------------------------------------------------------
			     It's Ok - Pearl Jam
-------------------------------------------------------------------------------
Tabbed by:Keyrok
Email: shetlanpony@hotmail.com

Tuning: Standard

Main riff:the entire song consists of these 3 cords, the timing is up to you listen to
the song and match it up, its an easy tune but fun to play and jump around to if you dig
punk.

e|--------------------------------------------------------------------------|
B|--------------------------------------------------------------------------|
G|---9----------------------------------------------------------------------|
D|---9-------9-----11------7------------------------------------------------|
A|---7-------9-----11------7------------------------------------------------|
E|-----------7------9------5------------------------------------------------|


| /  slide up
| \  slide down
| h  hammer-on
| p  pull-off
| ~  vibrato
| +  harmonic
| x  Mute note
===============================================================================
Tap to rate this tab
# A B C D E F G H I J K L M N O P Q R S T U V W X Y Z