Song name
# A B C D E F G H I J K L M N O P Q R S T U V W X Y Z

Pearl Jam - Crown Of Thorns tab

-------------------------------------------------------------------------------
			     CROWN OF THORNS - PEARL JAM
-------------------------------------------------------------------------------
Tabbed by:eddienelson
Email:eddienelson@hotmail.com

Tuning: Standard
Verse: strum each chord only once

e|-----------------------------------------|
B|--5--5----3--3----5--5----3--3--3--------|
G|--7--6----5--4----7--6----5--5--0--------|X2
D|--7--7----5--5----7--7----5--4--0--------| 
A|-----------------------------------------|
E|-----------------------------------------|

Chorus:
e|------------------------------------------------|
B|--5--5--5--5--5--5--5-----3--3--3--3--3--3--3---|
G|--7--6--7--6--7--7--7-----5--4--5--4--5--5--5---|
D|--7--7--7--7--7--7--7-----5--5--5--5--5--5--5---|
A|------------------------------------------------|
E|------------------------------------------------|

e|------------------------------------------------|
B|--5--5--5--5--5--5--5-----3--3--3---------------|
G|--7--6--7--6--7--7--7-----5--4--0---------------|
D|--7--7--7--7--7--7--7-----5--5--0---------------|
A|------------------------------------------------|
E|------------------------------------------------|

 That's it, very simple! Please rate.
 If you listen the cd you will figure it out in no time.
Tap to rate this tab
 
# A B C D E F G H I J K L M N O P Q R S T U V W X Y Z