Song name
# A B C D E F G H I J K L M N O P Q R S T U V W X Y Z

Pearl Jam - Leaving Here tab

Leaving here by PEARL JAM
Tabbed by Misha

Standard tuning

e|----------------------|
b|---------------------*|
g|----------------------|
D|---6-9-10/11-11-11-6--|
A|-0-4-7--8/-9--9--9-4-*|
E|----------------------|

Verses                the 4th time
|-------------------|-------------|
|----X-11-11-11-11-*|-------------|
|----X-11-11-11-11--|-------------|
|----X-11-11-11-11--|-------------|
|-11-X--9--9--9--9-*|-11-11-11-11-|
|--9----------------|--9--9--9--9-|
             3 times

Solo:
(clean)
|-----------------------------------------------|
|-----------------------------------------------|
|---11--11--11--11-11b12-11b12-11b12-11b12-9----|
|-9---9---9---9------------------------------11-|
|-----------------------------------------------|
|-----------------------------------------------|

|------------------|-------------|
|----X-11-11-11-11-|-------------|
|----X-11-11-11-11-|-------------|
|----X-11-11-11-11-|-------------|
|-11-X--9--9--9--9-|-11-11-11-11-|
|--9---------------|--9--9--9--9-|

(w/dist)
|-----------------------------------------|
|-------12-----12-----12------------------|
|-11b12---11b12--11b12--11b12-11-9-11-9---|
|--------------------------------------11-|
|-----------------------------------------|
|-----------------------------------------|

(clean)
|-------------------|-------------|
|----X-11-11-11-11-*|-------------|
|----X-11-11-11-11--|-------------|
|----X-11-11-11-11--|-------------|
|-11-X--9--9--9--9-*|-11-11-11-11-|
|--9----------------|--9--9--9--9-|

|-----------------------------|
|------12---------------------|
|-11b12--11-9-11---9---9------|
|----------------11--11--11-9-|
|-----------------------------|
|-----------------------------|


|-------------------|-------------|
|----X-11-11-11-11-*|-------------|
|----X-11-11-11-11--|-------------|
|----X-11-11-11-11--|-------------|
|-11-X--9--9--9--9-*|-11-11-11-11-|
|--9----------------|--9--9--9--9-|

(w/dist)                      
|-------------------------------------------|
|-------------------------------------------|
|-11-11-11-11-11-11-11-11-11-------15-------|
|-11-11-11-11-11-11-11-11-11--15b18~~~15b18-|
|-------------------------------------------|
|-------------------------------------------|
                              (keep the bend)

(clean)
|-------------------|-------------|
|----X-11-11-11-11-*|-------------|
|----X-11-11-11-11--|-------------|
|----X-11-11-11-11--|-------------|
|-11-X--9--9--9--9-*|-11-11-11-11-|
|--9----------------|--9--9--9--9-|

                     the 4th time
|-------------------|-------------|
|----X-11-11-11-11-*|-------------|
|----X-11-11-11-11--|-------------|
|----X-11-11-11-11--|-------------|
|-11-X--9--9--9--9-*|-11-11-11-11-|
|--9----------------|--9--9--9--9-|
             3 times

Outro
|----------|
|----------|
|----------|
|---6-9-11-|
|-0-4-7--9-|
|----------|
repeat as many times you need it

for the final
G1
|-----------------------------|
|-----11111111111111111111111-|
|-----11111111111111111111111-|
|-6-9-11111111111111111111111-|
|-4-7-9-9-9-9-9-9-9-9-9-9-9-9-|
|-----------------------------|

G2
|-----------------------------|-||
|-----11b1212121212121212r11--|-||
|-----11b1212121212121212r11--|-||
|-----------------------------|-||
|-----------------------------|-||
|-----------------------------|-||
Tap to rate this tab
 
# A B C D E F G H I J K L M N O P Q R S T U V W X Y Z