Guitaretab - guitar tabs
Song name
# A B C D E F G H I J K L M N O P Q R S T U V W X Y Z

Pearl Jam - Not For You tab

Not for You
by Pearl Jam
from the Vitalogy cd
transcribed by kevin gardner
code@wam.umd.edu

main riff 

--0--0--0--
--0--0--0--
--1--3--4--
--2--4--5--
--2--4--5--
--0--0--0--pre-solo stuff
----------------- -----------------
----------------- -----------------
----------------- -----------------
-3-5-7-5--------- -3-5-7-5---------
---------7-5-3-2- ---------7-3-2-3-
----------------- -----------------

----------------- -----------------
----------------- -----------------
----------------- -------5-4-------
-3-5-7-5--------- -3-5-7-----------
---------7-5-3-2- -----------------
----------------- -----------------

post solo stuff
--0--0--0--
--0--0--0--
--1--3--1--
--2--4--2--
--2--4--2--
--0--0--0--Date: Fri, 20 Oct 1995 23:44:44 -0500 (CDT)
From: Denny 

: I sat down for a while and drew up my thoughts on paper before I put them
: on the computer.  This is what I came up with.  I think it's pretty damn
: close, but you can improvise:
[ Tab from: http://www.guitaretab.com/p/pearl-jam/14318.html ]
: Solo 'Not for You'
: -------------------------------------------------------------------------
: -------------------------------------------------------------------------
: -------------------------------------------------------------------------
: -3--5--7--5--2--0--------3--5--7--5--2--------2--3--5--7--5--2--0--------
: -------------------3--2-----------------2--3-----------------------3--2--
: -------------------------------------------------------------------------

: ----------------[---0-0-0-0-0-0-------12--------]  Repeat last
: ----------------[---0-0-0-0-0-0----------12-----]  section once.
: ----------------[---1-1-1-1-1-1---/14-----------]
: -3--5--7--10--9-[----------------------------14-]
: ----------------[-------------------------------]
: ----------------[-------------------------------]

: --------------------------------12------------------------------------------- 
: -12---12--12---12----------12------15--12------------------------------------
: -14b--14b-14b--14b----/14--14b-------------14p12-------14--12--11--9--11--12-
: --------------------------------------------------14-------------------------
: -----------------------------------------------------------------------------
: -----------------------------------------------------------------------------

: --------------0-----------------   END SOLO
: --------------------------------
: -14--16-------------------------
: ----------------------//--\\----
: ----------------------//--\\----
: --------------------------------

: Some Beginning Stuff:
: --0-----0--------------;-------------------;---0-----0-----
: --0--0--0--------------;--12---12-12-12----;---0-----0-----
: --1--3--4--------------;--14---14-14-14h16-;---7-x-x-7-----
: --2--4--5--------------;-------------------;---------------
: --2--4--5--------------;-------------------;---------------
: --0--0--0--0-0--0-0-0--;-------------------;---------------
Related for Not For You tab
Not For You chords by Pearl Jam