Guitaretab - guitar tabs
Song name
# A B C D E F G H I J K L M N O P Q R S T U V W X Y Z

Pearl Jam - Sometimes tab

Manuel de Verdier 


Sometimes - Pearl Jam


This file is the author's own work and represents their interpretation 
of the song. You may only use this file for private study, scholarship,
or research. 

Transcribed by Manuel de Verdier
f94-mdv@nada.kth.se
http://www.student.nada.kth.se/~f94-mdv/
 

Riff 1 (guitar 1):

e:-----------------------------------|
h:------1-----1---1-----1-------1----|
g:------------------1-1---1-2-2---2--|          
d:--0-0---0-0---0--------------------|          
A:-----------------------------------|
E:-----------------------------------|


Guitar 2
Riff 1:                Riff 2:                    Riff 3:
[ Tab from: http://www.guitaretab.com/p/pearl-jam/14338.html ]
e:--------------17--|  e:--17----17-|  e:------------------------|
h:--------------17--|  h:-----17----|  h:------------------------|
g:------------------|  g:-----------|  g:------------------------|     
d:--14-14-15-16-----|  D:-----------|  D:--14-14-14-14-14-15-16--|     
A:------------------|  A:-----------|  A:------------------------|
E:------------------|  E:-----------|  E:------------------------|


Guitar 1
Riff 2:

e:|-----------------------------------|
h:|-----------------------------------|
g:|-----------------------------------|
d:|-----------------------------------|          
A:|------3-----3---3-----3-------3----|
D:|--1-1---1-1---1---0-0---0-1-1---1--|
Related for Sometimes tab
×
Sometimes