Song name
# A B C D E F G H I J K L M N O P Q R S T U V W X Y Z

Pearl Jam - Undone tab

Help us improve GuitareTab! Take a short survey!
Undone
Pearl Jam
Lost Dogs (Disc 1), Track 14


Verse/Riff 1 (tab without rhythm)

4x
     A5sus2      A5
e ---x---x---x---x---x---x---|
B ---x---x---x---x---x---x---|
G ---4---4---4---2---2---2---|
D ---2---2---2---2---2---2---|
A ---0---0---0---0---0---0---|
E ---x---x---x---x---x---x---|

   G           D
---x---x---x---x---x---x---|
---3---3---3---3---3---3---|
---0---0---0---2---2---2---|
---0---0---0---0---0---0---|
---x---x---x---x---x---x---|
---3---3---3---x---x---x---|

Chorus

C5                    G5
The world has come un-done. Like to

D5              A5
Change it every-day.

C5                   G5
Change don't come at once. There's a

A5/Asus2*
Wave building before it breaks.

*A5/Asus2 (end chorus)
---x---x---x---x------x---x---x---x---x---|
---x---x---x---x------x---x---x---x---x---|
---2---2---4---2------2---2---2---4---2---|
---2---2---2---2------2---2---2---2---2---|
---0---0---0---0------0---0---0---0---0---|
---x---x---x---x------x---x---x---x---x---|


Bridge (I play this way...)

   All this hope...           and nowhere to go
   E5  Bsus4                  A5sus2 (main riff)
---x---x----x---x----x---x----x---|
---x---x----x---x----x---x----x---|
---9---9----9---9----9---9----4---|
---9---9----9---9----9---9----2---|
---7---x----7---x----7---x----0---| etc.
---0---7----0---7----0---7----x---|


Outro
   G5  A5
---x---x---x---x---x---x---|
---3---x---x---x---x---x---|
---0---2---2---2---2---2---|
---0---2---2---2---2---2---|
---x---0---0---0---0---0---|
---3---x---x---x---x---x---|
Related for Undone tab