Song name
# A B C D E F G H I J K L M N O P Q R S T U V W X Y Z

Pearl Jam - The End tab

-------------------------------------------------------------------------------
			     THE END - Pearl Jam
-------------------------------------------------------------------------------

Tabbed by: Marco Armeni
Email: marco.armeni@tiscali.it

Tuning: Standard


Hi, this is my first tab, maybe some errors occours in the transcribing.


  Intro

e|---------|---------|---------|---------|
B|---------|---------|---------|---------|
G|---------|---------|---------|---------|
D|-4---4---|-4---4---|-4---4---|-4---4---|
A|---4---4-|---4---4-|---4---4-|---4---4-|
E|-2-------|-2-------|-2-------|-2-------|


  what were all those dreams we shared those many year ago?				

e|---------|---------|---------|---------|---------|---------|---------|---------|
B|---------|-2---2---|---------|---------|---------|---------|---------|---------|
G|-3---3---|---3---3-|-4---4---|-3---3---|-4---4---|-4---4---|-3---3---|-3---3---|   #1
D|---4---4-|---------|---4---4-|---4---4-|---4---4-|---4---4-|---4---4-|---4---4-|
A|---------|---------|---------|---------|---------|---------|---------|---------|
E|-2-------|-2-------|-2-------|-2-------|-2-------|-2-------|-2-------|-2-------|


  what where all those plans we made now left beside the road?          

e|---------|---------|---------|---------|---------|---------|---------|---------|
B|---------|-2---2---|---------|---------|---------|---------|---------|---------|
G|-3---3---|---3---3-|-4---4---|-3---3---|-4---4---|-4---4---|-3---3---|-3---3---|   #2
D|---4---4-|---------|---4---4-|---4---4-|---4---4-|---4---4-|---4---4-|---4---4-|
A|---------|---------|---------|---------|---------|---------|---------|---------|
E|-2-------|-2-------|-2-------|-2-------|-2-------|-2-------|-2-------|-2-------|


  behind us in the road

e|---------|---------|---------|---------|
B|---------|---------|---------|---------|
G|-4---4---|-4---4---|-3---3---|-3---3---|   #3
D|---4---4-|---4---4-|---4---4-|---4---4-|
A|---------|---------|---------|---------|
E|-2-------|-2-------|-2-------|-2-------|

  #Repeat the three pattern above for the next verse
  
  #1 -> more than friends i always pledged cause friend they come and go
  #2 -> people change and does everything i wanted to grow old
  #3 -> just want to grow old
  

  slide on next to me					  i'm just a human being
  
e|---------|---------|---------|---------|---------|---------|---------|---------|
B|---------|---------|-2---2---|-2---2---|-4---4---|-4---2---|---------|---------|
G|-3---3---|-4---4---|---3---3-|---3---3-|---4---4-|---------|-5---5---|-5---5---|   #4
D|---4---4-|---4---4-|-4-------|-4-------|---------|---------|---6---6-|---6---6-|
A|---------|---------|---------|---------|-2-------|-2---2---|---------|---------|
E|-2-------|-2-------|---------|---------|---------|---------|-4-------|-4-------|


  i will    take the blame  	but just the same   this is not me
  
e|---------|---------|---------|---------|---------|---------|---------|
B|-4---4---|-4-----6-|-7---7---|-7---9---|-6---6---|-6-\-7---|/4---4---|
G|---4---4-|---------|---8---8-|---------|---6---6-|---------|---4---4-|   #5
D|---------|---------|---------|---------|---------|---------|---------|
A|-2-------|-2-----4-|-6-------|-6---6---|-4-------|-4---4---|/2-------|
E|---------|---------|---------|---------|---------|---------|---------|

  you see			  believe             i'm better than this
  
e|---------|---------|---------|---------|---------|---------|
B|-4---4---|-2---2---|-4---4---|-2---2---|-4---4---|-2-------|
G|---4---4-|---4---4-|---4---4-|---4---4-|---4---4-|-----3---|   #6
D|---------|---------|---------|---------|---------|---------|
A|-2-------|-2-------|-2-------|-2-------|-2-------|-2---2---|
E|---------|---------|---------|---------|---------|---------|

  #Repeat the three pattern above for the next verse
  
  #3 -> don't leave me so cold or buried beneath the stones
  #4 -> i just want to hold on and know i'm worth your love
  #5 -> enough... i don't think... there's such a thing

  
  #Repeat the whole pattern for the rest of the song
    
  #1 -> it's my fault, now i been caught a sickness in my bones
  #2 -> how it paints to leave you here with the kids on your own
  #3 -> just don't let me go

  #4 -> help me see myself cause i can no longer tell
  #5 -> looking out from the inside of the bottom of a well
  #6 -> it's hell... i yell... but no one hears
  
  #4 -> before i disappear whisper in my ear
  #5 -> give me something to echo in my unknown futures ear
  #6 -> my dear... the end... comes near
  #6 -> i'm here... but not much longer

I think part #2 maybe work with this pattern too...

e|---------|---------|---------|---------|---------|---------|---------|---------|
B|---------|-2---2---|---------|---------|---------|---------|---------|---------|
G|-3---3---|---3---3-|-4---4---|-3---3---|-4---4---|-4---4---|-3---3---|-3---3---|   #2
D|---4---4-|---------|---4---4-|---4---4-|---4---4-|---4---4-|---4---4-|---4---4-|
A|---------|-2-------|---------|---------|---------|---------|---------|---------|
E|-2-------|---------|-2-------|-2-------|-2-------|-2-------|-2-------|-2-------|
Tap to rate this tab
# A B C D E F G H I J K L M N O P Q R S T U V W X Y Z