Song name
# A B C D E F G H I J K L M N O P Q R S T U V W X Y Z

Pearl Jam - Green Disease tab

A#----------------------------------PLEASE NOTE--------------------------------#
#This file is the author's own work and represents their interpretation of the#
#song. You may only use this file for private study, scholarship, or research.#
#-----------------------------------------------------------------------------#
#-- File created with Instab - http://www.pconline.com/~smcarey/instab.html --#
#-----------------------------------------------------------------------------#

Author/Artist: Pearl Jam
Title: Green Disease
/ slide up
h hammer on

-------|------|--------|--|---------|--|---------|--|-------------|--|--------|
-------|------|-5------|--|---------|--|---------|--|-------------|--|--------|
-------|-2-0--|---2-0--|--|---------|--|---------|--|-------------|--|--------|
-------|------|--------|--|---------|4x|---------|4x|-------------|2x|--------|
-------|------|--------|--|-0-0-0-0-|--|---------|--|-------0-----|--|--------|
-------|------|--------|--|---------|--|-0-0-0-0-|--|-7--9-----7--|--|--------|
        Intro               Bass         Bass         Hee hah

-------|-------------------------------------|--|-----------------------------|
-------|-------------------------------------|--|-----------------------------|
-------|------9---8---8-------------9--------|--|-----------------------------|
-------|-11---9---9---8---11--------9--------|--|-----------------------------|
-------|-11---7---11--6---11--------7--------|--|-----------------------------|
-------|-9----------------9------------------|--|-----------------------------|
         Verse G1

-------|-------------------------------------|--------------------------------|
-------|------------------9---9-----9---9----|--------------------------------|
-------|--------------------8---8-----9---9--|--------------------------------|
-------|-------------------------------------|--------------------------------|
-------|-------------------------------------|--------------------------------|
-------|-------------------------------------|--------------------------------|
         Verse G2

-------|--------------------------------|-------------------------------------|
-------|--------9------9------9------7--|-------------------------------------|
-------|------8------9------8------8----|-------------------------------------|
-------|-9/11------9------9------8------|-------------------------------------|
-------|--------------------------------|-------------------------------------|
-------|--------------------------------|-------------------------------------|
         Verse G2

-------|---------|------------------------------------------------------------|
-------|-5-------|------------------------------------------------------------|
-------|-2-------|------------------------------------------------------------|
-------|-2-------|------------------------------------------------------------|
-------|---------|------------------------------------------------------------|
-------|---------|------------------------------------------------------------|
        w/ Intro Riff

-------|------------------2------4------------------2-------------------------|
-------|-2-------2-2------3----------2------2-2-----3-------------------------|
-------|-2---1---2-2--1---2---1------2---1--2-2--1--2-------------------------|
-------|-2---2---2-2--2-------2------2---2--2-2--2-----0-0-0-0-0-0-0-0-4-4-4--|
-------|-----2--------2-------2----------2-------2----------------------------|
-------|----------------------------------------------------------------------|
        Chorus

-----------|--|---------------------------------------------------------------|
-----------|--|---------------------------------------------------------------|
-----------|--|---------------------------------------------------------------|
-4-0-0-0-0-|2x|---------------------------------------------------------------|
-----------|--|---------------------------------------------------------------|
-----------|--|---------------------------------------------------------------|


-------|---------------------------|--|----------------|----------------------|
-------|---------------------------|--|----------------|----------------------|
-------|---------------------------|--|----------------|----------------------|
-------|-2----2--2-2-------7--7-7--|--|----------------|----------------------|
-------|-0h4--4--4-4--5-5--7--7-7--|--|----------------|----------------------|
-------|-0----0--0-0-------0--0-0--|--|----------------|----------------------|
         Interlude                       Outro = Intro
Tap to rate this tab
# A B C D E F G H I J K L M N O P Q R S T U V W X Y Z