Song name
# A B C D E F G H I J K L M N O P Q R S T U V W X Y Z

Pedicab - Fx tab

Help us improve GuitareTab! Take a short survey!
song titile: Fx
ARtist: pedicab
tabbed by: chester villabrosa
E-Add: chester123_123@yahoo.com

hi sa lahat ng bemble rockers!!!!!!!!!!!!!!!
 mabuhay kau!!!!!!!!!


intro and  verse toh



e|--------------------------------------------|
b|--------------------------------------------|
g|--44--77------------------------------------|
D|--44--77--77--99----------------------------|
A|--22--55--77--99----------------------------|
E|----------55--77----------------------------|


chorus
|--------------------------------------------|
|--------------------------------------------|
|--------------------------------------------|
|--2-2---6-6---4-4---------------------------|
|--2-2---6-6---4-4---------------------------|
|--0-0---4-4---2-2---------------------------|

un lang tsaka na ung iba!!!!!!!!!!!!
mahaba eh!!!!!!!!!!!


Related for Fx tab