Song name
# A B C D E F G H I J K L M N O P Q R S T U V W X Y Z

Pennywise - Down Under tab

Help us improve GuitareTab! Take a short survey!
INTRO: 
e:----------------------------------------------------------------------------- 
b:----------------------------------------------------------------------------- 
g:-------5- 5- 5-5- ----------------------------------------------------------- 
d:-------5--5--5-5-------5--5--5--5----7--7--7--7----------3--3--5--5---------- 
a:-------3--3--3-3-------5--5--5--5----7--7--7--7----------3--3--5--5---------- 
E:-----------------------3--3--3--3----5--5--5--5----------1--1--3--3---------- 

VERSE:palm muted except for the f5 and g5 that follows 
e:----------------------------------------------------------------------------- 
b:----------------------------------------------------------------------------- 
g:----------------------------------------------------------------------------- 
d:----7--7--7--7--5--5--5--5--7--7--7--7--3--3--5--5--------------------------- 
a:----7--7--7--7--5--5--5--5--7--7--7--7--3--3--5--5--------------------------- 
e:----5--5--5--5--3--3--3--3--5--5--5--5--1--1--3--3--------------------------- 

chorus same as intro. 
SOLO: 
e:----------------------------------------------------------------------------- 
b:----------------------------------------------------------------------------- 
g:-----5-5-4-4-5-4-2----------5-5-4-4-5---------------5-5-4-5/7--7/9----------- 
d:-----------------------------------------------5-2--------------------------- 
a:----------------------------------------------------------------------------- 
e:----------------------------------------------------------------------------- 

e:---10h12p10h12p10h12h10--8h10p8h10p8h10p8----7h8p7---5h7p5---3h5p3-- 2h3p2 
b:----------------------------------------------------------------------------- 
g:----------------------------------------------------------------------------- 
d:----------------------------------------------------------------------------- 
a:----------------------------------------------------------------------------- 
e:----------------------------------------------------------------------------- 

e:---0------8------7-----5-----3----------------------------------------------- 
b:----------------------------------------------------------------------------- 
g:----------------------------------------------------7--------9--------------- 
d:----------------------------------------------------x--------x--------------- 
a:----------------------------------------------------5--------7--------------- 
e:----------------------------------------------------------------------------- 

key: h= hammer-ons 
p= pull-offs
Related for Down Under tab