Song name
# A B C D E F G H I J K L M N O P Q R S T U V W X Y Z

Pennywise - Falling Down tab

ok i checked everywhere and this tab is not right anywhere, so here's my FIRST tab, the
may be sketchy so feel free to fix it up but i think it sounds pretty sick. So here it
falling down by pennywise a sick song!

-------------------------------------------------------------------------------
			     SONG NAME -  Falling Down
-------------------------------------------------------------------------------
Tabbed by: Andrew Medeiros a.k.a Pennywise_Rocks
Email:join_the_dark_side879@hotmail.com

Tuning: standard


Intro
e|--------------------------------------------------------------------------|
B|--------------------------------------------------------------------------|
G|--------------------------------------------------------------------------|
D|---10-----------13------11--------8---------------------------------------|
A|---------11-----------------------------8---------------------------------|
E|--------------------------------------------------------------------------|

Listen to the song for timing.

intro guitar 2
e|--------------------------------------------------------------------------|
B|--------------------------------------------------------------------------|
G|------6-------------------6-------6---8-------6---------------------------|
D|--3---6---3---6---8---3---6---3---6---8---3---6---3---6---8---6-----------|
A|--3---4---3---6---8---3---4---3---4---6---3---4---3---6---8---6-----------|
E|--1-------1---4---6---1-------1-----------1-------1---4---6---4-----------|


e|--------------------------------------------------------------------------|
B|--------------------------------------------------------------------------|
G|-------6-------8-------6--------------------------------------------------|
D|---3---x---3---x---3---x---6---8---6---8----------------------------------|
A|---3---4---3---6---3---4---6---8---6---8----------------------------------|
E|---1-------1-------1-------4---6---4---6----------------------------------|
again listen to the song for timing

Go back to intro

Verse
e|--------------------------------------------------------------------------|
B|--------------------------------------------------------------------------|
G|---------------6---8---6--------------------------------------------------|
D|---3---8---3---x---x---x---3---8---3---6---8---6--------------------------|
A|---3---8---3---4---6---4---3---8---3---6---8---6--------------------------|
E|---1---6---1---------------1---6---1---4---6---4--------------------------|

e|--------------------------------------------------------------------------|
B|--------------------------------------------------------------------------|
G|---------------6---8---6--------------------------------------------------|
D|---3---8---3---x---x---x---3---6---8---6---8---3--------------------------|
A|---3---8---3---4---6---4---3---6---8---6---8---3-----pickslide------------|
E|---1---6---1---------------1---4---6---4---6---1--------------------------|
                                                 pm

chorus
e|---------------------------------------------------------------------------|
B|---------------------------------------------------------------------------|
G|---10---6---8---7---6------------------8---9---10--------------------------|
D|---10---6---8---7---6---6---5---6------8---9---10--------------------------|
A|----8---4---6---5---4---6---5---6------6---7----8--------------------------|
E|------------------------4---3---4------------------------------------------|
repeat chorus twice listen closely  to the song you'll see why some of these notes may
make sense because there quiet and maybe i was hearing things but i heard them there
changes though.

go back to intro, it changes though a little listen to the song for the changes

then go to verse/pre chorus
then go to chorus

solo
e|--------------------------------------------------------------------------|
B|--------------------------------------------------------------------------|
G|---10---10---10---13---12---15---13---10---10---13---12---15---17---------|
D|----x----x----x----x----x----x----x----x----x----x----x----x----x---------|
A|----8----8----8---11---10---13---11----8----8---11---10---13---15---------|
E|--------------------------------------------------------------------------|
      pm   pm                            pm   pm

e|-------------------------------------|-------------------------------------|
B|-------------------------------------|------13--------11^---11----10---6---|
G|--10---10---10---13---12---15---13---|---17-----17^---15^---15----13--10---|
D|---x----x----x----x----x----x----x---|-------------------------------------|
A|---8----8----8---11---10---13---11---|-------------------------------------|
E|-------------------------------------|-------------------------------------|
     pm   pm                              pm


play right through the bar seperating the notes the first time through, then repeat the
up to the bar and play this directly after.

e|--------------------------------------------------------------------------|
B|--------------------------------------------------------------------------|
G|--------------------------------------------------------------------------|
D|---3----------------------------------------------------------------------|
A|---3----------------------------------------------------------------------|
E|---1----------------------------------------------------------------------|
    pm

go back to chorus

repeat twice

then play this ending.

e|--------------------------------------------------------------------------|
B|--------------------------------------------------------------------------|
G|--10---10---10----13----15----17------------------------------------------|
D|---x----x----x-----x-----x-----x------------------------------------------|
A|---8----8----8----11----13----15------------------------------------------|
E|--------------------------------------------------------------------------|
    pm   pm


There it finally is, my first tab and the correct verson of this song. email me for feed
on what you think unless your just going to say it sucks or something then i don't
Sorry you have to listen to the song for the timing I no its hard but then again so is 
by ear and then getting sick of the song because you've heard it now a billion times:P.
Luck i hope you enjoyed this song. CHARLIE HARRIS ROCKS!

^ = pull
x = mute
pm = palm mute
Tap to rate this tab
 
# A B C D E F G H I J K L M N O P Q R S T U V W X Y Z