Song name
# A B C D E F G H I J K L M N O P Q R S T U V W X Y Z

Pennywise - Homeless tab

From: Rambozo 
Subject: Homeless by PENNYWISE


intro:                           verse:
e-|-----------------------------|---------------------------------------
B-|-----------------------------|---------------------------------------
G-|-7-7-7-7-7-7-5-7-7-7-7-7-5-7-|-7-7-7-7-10-10-9-9-5-7-7-5-7-7-7-7-7-7-
D-|-7-7-7-7-7-7-5-7-7-7-7-7-5-7-|-7-7-7-7-10-10-9-9-5-7-7-5-7-7-7-7-7-7-
A-|-5-5-5-5-5-5-3-5-5-5-5-5-3-5-|-5-5-5-5--8--8-7-7-3-5-5-3-5-5-5-5-5-5-
E-|-----------------------------|---------------------------------------


e-|-----------------------------------------------------------------------
B-|-----------------------------------------------------------------------
G-|-10-10-9-9-5-5-5-5---------7-7-7-7-10-10-9-9-7-7-7-7-10-10-9-9-7-7-7-7-
D-|-10-10-9-9-5-5-5-5-7-7-7-7-7-7-7-7-10-10-9-9-7-7-7-7-10-10-9-9-7-7-7-7-
A-|--8--8-7-7-3-3-3-3-7-7-7-7-5-5-5-5--8--8-7-7-5-5-5-5--8--8-7-7-5-5-5-5-
E-|-------------------5-5-5-5---------------------------------------------

                               chorus:
e-|---------------------------|-----------------------------------------
B-|---------------------------|-----------------------------------------
G-|-10-10-9-9-5-5-5-5---------|-7-7-7-7-10-10-10-10-7-7-7-7-10-10-10-10-
D-|-10-10-9-9-5-5-5-5-7-7-7-7-|-7-7-7-7-10-10-10-10-7-7-7-7-10-10-10-10-
A-|--8--8-7-7-3-3-3-3-7-7-7-7-|-5-5-5-5--8--8--8--8-5-5-5-5--8--8--8--8-
E-|-------------------5-5-5-5-|-----------------------------------------

                                         bridge:
e-|-------------------------------------|-----------------------------
B-|-------------------------------------|-----------------------------
G-|-7-7-7-7-3-3-3-3-10-10-10-10-5-5-5-5-|-7-7-7-7-10-10-10-10-9-9-9-9-
D-|-7-7-7-7-3-3-3-3-10-10-10-10-5-5-5-5-|-7-7-7-7-10-10-10-10-9-9-9-9-
A-|-5-5-5-5-1-1-1-1--8--8--8--8-3-3-3-5-|-5-5-5-5--8--8--8--8-7-7-7-7-
E-|-------------------------------------|-----------------------------


e-|------------|
B-|------------|
G-|-7-7-10-9-7-|
D-|-7-7--------|
A-|-5-5--------|
E-|------------|

transcribed by rambozo jjm@nucleus.com
Tap to rate this tab
 
# A B C D E F G H I J K L M N O P Q R S T U V W X Y Z