Song name
# A B C D E F G H I J K L M N O P Q R S T U V W X Y Z

Pennywise - Dying To Know tab

Song: Dying to Know
Artist: Pennywise
Tuning: Normal
For this im putting just p for palm muted cos pm is too long

Intro
e|-------------------------------------------------------------------------|
B|-15-15-15-15-------------------------------------------------------------|
G|-14-14-14-14-13br-13b-12-13-13-------12-13-12----------------------------|
D|-------------------------------15-15----------12-12-14-14-15-15-14-(x2)-|
A|-------------------------------------------------------------------------|
E|-------------------------------------------------------------------------|

e|-------------------------------------------------------------------------|
B|-------------------------------------------------------------------------|
G|-------------------------------------------------------------------------|
D|-12-12-14-14-15-15-14-12\------------------------------------------------|
A|-------------------------------------------------------------------------|
E|-------------------------------------------------------------------------|
on the final 12 u can do a vibrato watever u think sounds best

verse
e|-------------------------------------------------------------------------|
B|-------------------------------------------------------------------------|
G|-7-7-7-7-10-10---------------------------5-5-5---------------------------|
D|-7-7-7-7-10-10-10-10-10-10-9-5-5-5-5-7-3-5-5-5---------------------------|
A|-5-5-5-5-8--8--10-10-10-10-9-5-5-5-5-7-3-3-3-3---------------------------|
E|---------------8--8--8--8--7-3-3-3-3-5-1---------------------------------|
   p p p   p        p  p  p      p p p      

1st part of the chorus (not bothering to write out how many times the chords are played for chorus)
e|-------------------------------------------------------------------------|
B|-------------------------------------------------------------------------|
G|-7-----------------------------------------------------------------------|
D|-7-10-9-5-7-3------------------------------------------------------------|
A|-5-10-9-5-7-3------------------------------------------------------------|
E|---8--7-3-5-1------------------------------------------------------------|

Part 2 of chorus
e|-------------------------------------------------------------------------|
B|-------------------------------------------------------------------------|
G|-7-10----7-10-12---------------------------------------------------------|
D|-7-10-10-7-10-12---------------------------------------------------------|
A|-5-8--10-5-8--10---------------------------------------------------------|
E|------8------------------------------------------------------------------|

after the chorus is just the chord pattern from the verse played without being palm muted

Solo
e|-------------------------------------------------------------------------|
B|-15-----13----------------------15------18-17-15-13-13-15-18-18-17-17----|
G|-14-13b-------------------------14-13br----------------------------------|
D|----------15----14-15-15p14-12~------------------------------------------|
A|-------------15----------------------------------------------------------|
E|-------------------------------------------------------------------------|

e|-------------------------------------------------------------------------|
B|-15-13-15----------------------------------------------------------------|
G|------------------5-7-10-7-10-7-10-7-7-5---------------------------------|
D|--------------5-7------------------------7-5-----------------------------|
A|----------5-8--------------------------------8-7-5---7-8-7---------------|
E|---------------------------------------------------8---------------------|

e|-------------------------------------------------------------------------|
B|-------------------------------------------------------------------------|
G|---7-7-5---5---5---5-7(pinch harmonic)-5h7p5---7b------------------------|
D|---------7---7---7---------------------------7---------------------------|
A|-5-----------------------------------------------------------------------|
E|-------------------------------------------------------------------------|

| /  slide up
| \  slide down
| h  hammer-on
| p  pull-off
| ~  vibrato
| +  harmonic
| x  Mute note
============================================================================
Tap to rate this tab
# A B C D E F G H I J K L M N O P Q R S T U V W X Y Z