Song name
# A B C D E F G H I J K L M N O P Q R S T U V W X Y Z

Pennywise - Not Far Away tab

----------------------------------------------------------------------------
                           Not Far Away - Pennywise
----------------------------------------------------------------------------
This is my first tab and i think i did ok. 

INTRO.
e|-------------------------------------|
B|-------------------------------------|
G|-------------------------------------|
D|-------------------------------------|
A|---8-7------8-7-----8-7---10-10-8-7--|
E|-5-----85-5-----8-5-----8-----------8|

e|-------------------------------------|
B|-------------------------------------|
G|-------------------------------------|
D|--------------------------12-10-9----|
A|---8-7------8-7-----8-7---10-8--7-10-|
E|-5-----85-5-----8-5-----8---------8--|


Verse. There are muted notes so listen to the song to get them   
e|------------------------|
B|------------------------|
G|------------------------|
D|-----1010-9-999---------|x12
A|-7-7-8-8--7-777-1010-99-|
E|-5-5------------8-8--77-| 

Pre-chorus.
e|-----------|-----------|
B|-----------|-----------|
G|-----------|-----9-----|
D|-----7-----|-----9-----|x3
A|-----5-----|-----------|
E|-----------|-----7-----|Play each bar many times


        First bar x2
e|------------------------|----------------------------------------------|
B|------------------------|----------------------------------------------|
G|------------------------|----------------------------------------------|
D|-----1010-9-999---------|-----101010-----------------9-99999999999999--| 
A|-7-7-8-8--7-777-1010-99-|-7-7-8-8-8--10-101010101010-7-77777777777777--|
E|-5-5------------8-8--77-|-5-5--------8--8-8-8-8-8-8--------------------|


Play Intro again.


e|------------------------|
B|------------------------|
G|------------------------|
D|-----1010-9-999---------|x8
A|-7-7-8-8--7-777-1010-99-|
E|-5-5------------8-8--77-|


Pre-chorus
e|-----------|-----------|-----------|-----------|
B|-----------|-----------|-----------|-----------|
G|-----------|-----9-----|-----------|-----------|
D|-----7-----|-----9-----|-----7-----|-----9-----|
A|-----5-----|-----------|-----5-----|-----7-----|
E|-----------|-----7-----|-----------|-----------|Play each bar many times


        First bar x2
e|------------------------|----------------------------------------------|
B|------------------------|----------------------------------------------|
G|------------------------|----------------------------------------------|
D|-----1010-9-999---------|-----101010-----------------9-99999999999999--| 
A|-7-7-8-8--7-777-1010-99-|-7-7-8-8-8--10-101010101010-7-77777777777777--|
E|-5-5------------8-8--77-|-5-5--------8--8-8-8-8-8-8--------------------|


Bridge.
e|-----------------------|
B|-----------------------|
G|-----------------------|
D|-----------------------|x2
A|---8-7--------8-10-8-7-|
E|-5-----8-7-5-----------|


        First bar x5
e|------------------------|----------------------------------------------|
B|------------------------|----------------------------------------------|
G|------------------------|----------------------------------------------|
D|-----1010-9-999---------|-----101010-----------------9-99999999999999--| 
A|-7-7-8-8--7-777-1010-99-|-7-7-8-8-8--10-101010101010-7-77777777777777--|
E|-5-5------------8-8--77-|-5-5--------8--8-8-8-8-8-8--------------------|


Outro. x2
e|-------------------------------|-------------------------------|
B|-------------------------------|-------------------------------|
G|-------------------------------|-------------------------------|
D|------101010-12-12121212121212-|------101010-12-12121212121212-|
A|-7-7--8-8-8--10-10101010101010-|-7-7--8-8-8--12-12121212121212-|
E|-5-5---------------------------|-5-5---------------------------|
         
e|-------------------------------------------------|
B|-------------------------------------------------|
G|-------------------------------------------------|
D|-----101010-----------------9-99999999999999-----| 
A|-7-7-8-8-8--10-101010101010-7-77777777777777--7--|
E|-5-5--------8--8-8-8-8-8-8--------------------5--|



Tap to rate this tab
# A B C D E F G H I J K L M N O P Q R S T U V W X Y Z