Song name
# A B C D E F G H I J K L M N O P Q R S T U V W X Y Z

People In Planes - Moth tab

People In Planes - Moth
Album: As Far as the Eye Can See
Tuning: (D A D G B e)

like my version of Falling by the Wayside i play this song in D im not saying the
other version is wrong this is just the way I learned it.

e|----------------------------------------------------------------|
B|----------------------------------------------------------------|
G|----------------------------------------------------------------|
D|-----12------9-------12------9-------12------9-------12------9--|
A|---9----9-12-------9----9-12-------9----9-12-------9----9-12----|
D|-9---------------9---------------9---------------9--------------|

e|-----------------------------------------------|
B|-----------------------------------------------|
G|-----7-----4------7-----4----------------------|
D|---4---4-7------4---4-7--------12------9-------|
A|-----------------------------9----9-12---------|
D|-5------------5------------9--------------9----|

Brought to you by AdioFoo  Please Comment :D
Tap to rate this tab
# A B C D E F G H I J K L M N O P Q R S T U V W X Y Z