Song name
# A B C D E F G H I J K L M N O P Q R S T U V W X Y Z

Peps - Oboy Akustik tab

Help us improve GuitareTab! Take a short survey!
This is a great summer song by the swed Peps Persson. Itīs suposed to be played pretty fast. HAVE FUN!

E]-5-3----0-0-1-0----------0----5-3---0-0-1-0-----------0-]
B]---------------3--1-1-1-3-3----------------3---1-1-1-3-3]Fine
G]----------------0---------------------------0-0---------]
D]--------------------------------------------------------]
A]--------------------------------------------------------]
E]--------------------------------------------------------]

E]---------0-1----------------0-1------------------0------]
B]--1-1-1-3---3-3------1-1-1-3---3-3-3------1-1-1-3-1-3-3-]
G]-0--------------0---0---------------0----0-------------0]
D]--------------------------------------------------------]
A]--------------------------------------------------------]
E]--------------------------------------------------------]

E]--------0-1---------------------------------------------]
B]-1-1-1-3---3-3------------------------------------------]
G]--------------0-----------------------------------------]
D]--------------------------------------------------------]
A]--------------------------------------------------------]
E]--------------------------------------------------------]
                         D.C. al fine (from beging to fine)
                                          
Related for Oboy Akustik tab