Song name
# A B C D E F G H I J K L M N O P Q R S T U V W X Y Z

Percy Sledge - When A Man Loves A Woman tab

----------------------------------------------------------------------
	     Percy Slegde - When a man love´s a woman
----------------------------------------------------------------------
Tabbed by:Christopher Ipsen
Email: Chrisipsen@mail.dk

Tuning:Standart

Intro:

e|--------------------------9-6-4------------------------------------|
B|--------------------------9-6-4--7-6----------7p6------------------|
G|---------------8b-8b-6---------------8-6-6--6-----6----------------|
D|---------8-6-------------------------------------------------6/8-6-|
A|-4-6-8------------------------------------------------4-6-8--------|
E|-------------------------------------------------------------------|
         |||||
 Have Fun = =
        < . . >
         \ ~ /
          \o/
           ¤
Tap to rate this tab
# A B C D E F G H I J K L M N O P Q R S T U V W X Y Z