Song name
# A B C D E F G H I J K L M N O P Q R S T U V W X Y Z

Periodic - Seven tab

Song: 7
Band: Periodic

Intro/Verse/Break: (rythm not shown, its easy to figure out)
e---x------x------x------x--|
b---x------x------x------10-|
g---7------6------x------9--|
d---7------7------11-----0--|
a---5------5------9------0--|
d---5------5------9------0--|

Pre Chorus:
e----------------------------------------|
b----------------------------------------|
g----------------------------------------|
d------------------- 11------------------|
a---9/12/9-9/12/9-9999-------------------|(let chord ring)
d---0----0-0----0-0009-------------------|

Chorus: (rythm not shown)
e---0-------------0-------------0-------------0-------------|
b---3-------------3-------------3-------------3-------------|
g---2-------------2-------------2-------------2-------------|
d---0------11-----0------11-----0------11-----0------11-----|
a---0------9------0------9------0------9------0------9------|
d---0------9------0------9------0------9------0------9------|

Bridge:
e---0------|
b---3------|
g---2------|
d---0------|
a---0------|
d---0------|
Tap to rate this tab
 
# A B C D E F G H I J K L M N O P Q R S T U V W X Y Z