Song name
# A B C D E F G H I J K L M N O P Q R S T U V W X Y Z

Perry Blake - This Life tab

This life - Perry Blake

http://www.perryblake.com/

Tabbed by Seb Oddos aka Zappy the Koala

Intro Riff1
E |-------2---------3---2--2---------2--2--0---------2--2--0---------2-|
B |-0--3----3--0--3---3------3--2--3---------3--2--3---------3--2--3---|
G |--------------------------------------------------------------------|
D |--------------------------------------------------------------------|
A |--------------------------------------------------------------------|
E |--------------------------------------------------------------------|

Riff2 (E)
E |-----0--2--4---------------|
B |--4-----------4--0--2------|
G |---------------------------|
D |---------------------------|
A |---------------------------|
E |---------------------------|

Verse 1 2 (Gm#  A     E)
Gm#     A     E      Gm#       A     E
It's a little device  It's a little device 
Keeps you warm  Keeps you warm

It's a little surprise  Just a little surprise
To keep you calm  To keep you calm

Instrumental  Gm#  A   E (Riff2 on E)

Verse 3 (Gm#  A     E)
Shadows and light  Shadows and light
Gm#                  A            E
I see your face on every single street

Chorus (Bm  D  E  Bm)  
Bm                             D
Got to get out of this place tonight
D                               E
Got to get out of this way of life
                                 Bm 
Got to get out of this place tonight

Verse 4 & 5 (Gm#  A     E)
It's a little device  It's a little device
Keeps you warm  Keeps you warm

Got to get out of this place tonight
Got to get out of this way of life
Tap to rate this tab
# A B C D E F G H I J K L M N O P Q R S T U V W X Y Z