Song name
# A B C D E F G H I J K L M N O P Q R S T U V W X Y Z

Persephones Bees - Muzika Dlya Filma tab

i found NO tabs at all of this song, and i was mucking around with my guitar and it 
a bit like some of the chords from this song. so here it is, im new at tabbing, and this is 
first tab. there might be some wrong chords, but it sounds fine to me...


these are basicaly the chords, not exactly the strumming patterns. The solo bits are 
picking of the current chord buy the rhythmic guitar- play around and you'll see...


intro riff

    Em

e--0-----------------------0-------|
B--0-----------------------0-------|
G--0--x16--5--x16----------0--x16--|
D--2-------5-------7-------2-------|
A--2-------3-------7--x16--2-------|
E--0---------------5-------0-------|


verse riff

e--0-----------------------------|
B--0-----------------------------|
G--0--x24-----7----------4-------|
D--2----------7--x16-----4--x16--|
A--2----------5----------2-------|
E--0-----------------------------|


chorus riff

e--5---------------------0-------|
B--5---------------------2-------|
G--5--x16-----5----------3--x24--|
D--7----------5--x16-----3-------|
A--7----------3----------0-------|
E--5-----------------------------|

e--5---------------------0---------|
B--5---------------------0---------|
G--5--x16-----7----------0--x24----|
D--7----------7--x16-----2---------|
A--7----------5----------2---------|
E--5---------------------0---------|

thanks...

persephones bees official website:
http://www.persephonesbees.com/
Tap to rate this tab
 
# A B C D E F G H I J K L M N O P Q R S T U V W X Y Z