Guitaretab - guitar tabs
Song name
# A B C D E F G H I J K L M N O P Q R S T U V W X Y Z

Persiana Jones - No tab

Persiana Jones - No!(Brivido Caldo - 1997)

Tabbed by Nire93
Per informazioni > o0chico0o@live.it

La mia prima tabulatura..Tutto arrangiato ad orecchio,sicuro
al 99%(Qualche dubbio nell'assolo iniziale c' ancora),una
canzone bella da suonare,abbastanza semplice,spero che vi
sia da aiuto questa tab!!! :)

Legenda:
w = Leva Vibrato
. = Pinch Harmonics
b = Bend
pm= Palm Mute
/ = Slide
~ = Lasciare Suonare

Intro(Entrambi le chitarre)
E|------------------------------------------------------------|
B|------------------------------------------------------------|
G|---777777777--999999999--777777777--------------------------|
D|---777777777--999999999--777777777--444444442--444444442----|
A|---555555555--777777777--555555555--444444442--444444442----|
E|------------------------------------222222220--222222220----|

Chitarra Solista
E|-------------------------------------------------------------|
B|-------------------------------------------------------------|
G|-4b~ 2-1------------------------2---2-4.b~ 2-1---------------|
D|---------2-4-2----------2-4-2-4---4------------2-4-2---------|
A|---------------4-2-4~ 4------------------------------4-2-4~--|
E|-------------------------------------------------------------|

E|------------------------------------------------------------|
B|------------------------------------------------------------|
G|----------2---2-4.b~~~ -------------------------------------|
D|--2-4-2-4---4-----------------------------------------------|
A|4-----------------------------------------------------------|
E|------------------------------------------------------------|

Strofa(Entrambi le chitarre)
E|------------------------------------------------------------|
B|------------------------------------------------------------|
G|---------------------------------6/7-7/9--------------------|
D|--7----------2--------4----------6/7-7/9---[x2]-------------|
A|--7----------2--2-4-5-4----------4/5-5/7--------------------|
E|--55555555555000------22222222222---------------------------|
   pm.......... ..       ..........
[ Tab from: http://www.guitaretab.com/p/persiana-jones/189929.html ]
Pre-Ritornello
E|------------------------------------------------------------|
B|------------------------------------------------------------|
G|---------------------------------6/7777-7/9999--------------|
D|--77777777-2222222------4--------6/7777-7/9999---[x2]-------|
A|--77777777-22222222-4-5-4--------4/5555-5/7777--------------|
E|--55555555-0000000------222222222---------------------------|
                         pm........
Ritornello
E|------------------------------------------------------------|
B|------------------------------------------------------------|
G|-----------------------------7---7/9---9--------------------|
D|--77777777-22222222-44444444-7---7/9---9---[x2]-------------|
A|--77777777-22222222-44444444-55555/77777--------------------|
E|--55555555-00000000-22222222--------------------------------|
                              pm...   ...
Chitarra Solista
E|-------------------------------------------------------------|
B|-------------------------------------------------------------|
G|-4b~ 2-1------------------------2---2-4.b~ 2-1---------------|
D|---------2-4-2----------2-4-2-4---4------------2-4-2---------|
A|---------------4-2-4~ 4------------------------------4-2-4~--|
E|-------------------------------------------------------------|

E|------------------------------------------------------------|
B|------------------------------------------------------------|
G|----------2---2-4.b~~~ -------------------------------------|
D|--2-4-2-4---4-----------------------------------------------|
A|4-----------------------------------------------------------|
E|------------------------------------------------------------|


Strofa(Entrambi le chitarre)
E|------------------------------------------------------------|
B|------------------------------------------------------------|
G|---------------------------------6/7-7/9--------------------|
D|--7----------2--------4----------6/7-7/9---[x2]-------------|
A|--7----------2--2-4-5-4----------4/5-5/7--------------------|
E|--55555555555000------22222222222---------------------------|
   pm.......... ..       ..........

Pre-Ritornello
E|------------------------------------------------------------|
B|------------------------------------------------------------|
G|---------------------------------6/7777-7/9999--------------|
D|--77777777-2222222------4--------6/7777-7/9999---[x2]-------|
A|--77777777-22222222-4-5-4--------4/5555-5/7777--------------|
E|--55555555-0000000------222222222---------------------------|
                         pm........
Ritornello
E|------------------------------------------------------------|
B|------------------------------------------------------------|
G|-----------------------------7---7/9---9--------------------|
D|--77777777-22222222-44444444-7---7/9---9---[x2]-------------|
A|--77777777-22222222-44444444-55555/77777--------------------|
E|--55555555-00000000-22222222--------------------------------|
                              pm...   ...
Assolo
E|-----------------------------------------------9-7-9-9-12-9-|
B|---------------------------------------10-7-10--------------|
G|------6-6-6-6-4-4-7-7-7-7-6--6-6-6-7-9----------------------|
D|--7-7-------------------------------------------------------|
A|------------------------------------------------------------|
E|------------------------------------------------------------|

E|--9-7-9-9/10-9----------------------------------------------|
B|---------------12-10----------------------------------------|
G|----------------------6-6-7-9-------------------------------|
D|------------------------------7/9-7-------------------------|
A|------------------------------------7/9-7-------------------|
E|------------------------------------------7-5w--------------|

Pre-Ritornello
E|------------------------------------------------------------|
B|------------------------------------------------------------|
G|-----------------------7777/9999----------------------------|
D|-----7-----2-----4-----7777/9999----------------------------|
A|-----7-----2-----4-----5555/7777----------------------------|
E|-----5-----0-----2------------------------------------------|

Ritornello
E|------------------------------------------------------------|
B|------------------------------------------------------------|
G|----------------------------------6/7777-7/9999---------7~--|
D|--77777777-2222222------444444444-6/7777-7/9999---[x2]--7~--|
A|--77777777-22222222-4-5-444444444-4/5555-5/7777---------5~--|
E|--55555555-0000000------222222222---------------------------|

THE END :)
Related for No tab